Ben Folds Five logo

Rain Drops Keep Falling Ben Folds Five

  • 0
  • Share
  • Font Size
Ben Folds Five – Rain Drops Keep Falling
Name - Ambarish Dash
Song - Rain Drops Keep Falling on My Head (MELODY)
Artist - Burt Bacharach, BJ Thomas

! This is a very nice old song. The melody is quite haunting and its one of the first songs I learnt to
I tried hard to find the notations, tabs or chords for this song on the internet but couldn't find it
So i decided to send this. I haven't given the chords and neither the TABS, this is just a plain and simple melody to the song. !

! Its basically using the 3rd, 4th and 5th strings of your guitar, though 2nd IS used at times. You can play it at a higher octave in the piano to get better sounds. !

! I've tried to remove as many half notes as possible without changing the song. This is a much simpler version of the song for all you beginners like myself. !

! This song can be used for research and private purposes only. If you would like to use it for any other purpose, please first send me an email at [email protected] !

Beats - 4/4
Beat Symbol - *

* * * * * * * * * * * * * * * * * * * * * * * * E#------------------|-----------|------------------|------------|---------------|--|
B#------------------|-----------|------------------|------------|-0-------------|-0---------------------------------------------------------------------------------------------|
G#------------------|-----------|-0--0-0--2-0------|----0-------|-------2-0-----|-------2---------------------------------------------------------------------------------------|
D#-2--2-2--3-2--0---|2----------|--------------3-2-|-2-----0----|-----------2---|-----------------------------------------------------------------------------------------------|
A#----------------3-|---------3-|------------------|----------3-|-------------2-|-----------------------------------------------------------------------------------------------|
E#------------------|-----------|------------------|------------|---------------|-----------------------------------------------------------------------------------------------|

* * * * * * * * * * * * * * * * * * * * * * * *
E#------------------|---------------|------------|------------|------------|--------------|
B#------------------|---------------|------------|------------|------------|--------------|
G#-0--0------0------|-0--0------0---|------------|----------0-|------------|--------------|
D#------2--3----3-2-|------2--3-----|----------0-|-2----------|-0--------2-|-3-2--0-------|
A#------------------|---------------|----3--3----|------------|------------|------------3-|
E#------------------|---------------|------------|------------|------------|--------------|

* * * * * * * * * * * * * * * * * * * * * * * *
E#------------|------------|--------------|--------------|-------------|-----------------|
B#------------|------------|--------------|-0------------|-------------|-----------------|
G#------------|-2--0-------|-2-0--0-------|---2--0-------|-------------|-----------------|
D#-2--0--2--3-|----------2-|------------2-|------------2-|-0----2----0-|-----------------|
A#------------|------------|--------------|--------------|----3--------|-----------------|
E#------------|------------|--------------|--------------|-------------|-----------------|

------ Play again till this point and after that ------

* * * * * * * * * * * *
E#---------|----------------|------------|
B#---------|----------------|------------|
G#---------|---------2-0----|------------|
D#-2-------|----------------|-2-0--------|
A#---------|----3-3-------3-|------3-----|
E#---------|----------------|------------|

[ = = ]
[ | ]
[ ==== ]
------

! Suggestions, improvements, comments are welcome, [email protected] !

Log In to leave a comment

After registration we will return you to the same place
Comments
face-with-monocle
If you wait a bit, some comments may appear here...

Shhh...