Loading...
  • 0
  • Share
  • Transposing
    0
  • Font Size
Tristan Hoogland
[email protected]
Http://ussjlegend.cjb.net/

Ben Folds Five - Brick

Now i know there's another version of this song on
But i had to place my version which is the corrected one.

Tuning: STANDARD

D G
E|-2-----2-----2---0-----0-----0--|
B|---3-----3-----3---3-----3-----3|
G|-----2-----2---------2-----2----|
D|-0-----0-----0------------------|
A|--------------------------------|
E|-----------------3-----3-----3--|

The chorus goes:
G A D
She’s a brick and I'm drowning slowly.
G A Bm
Off the coast and I'm headed nowhere.
G A D
She’s a brick and I'm drowning slowly.
===========
Ben Folds Five- Brick

Here's the song Brick by Ben Folds Five.

The intro is piano, transcribed into guitar.

High e-2-----2-0----0------0-------
b-----3------3-----3----3---3-
g---2------------2--------2---

The chorus goes:

G A D
She’s a brick and I'm drowning slowly.
G A Bm
Off the coast and I'm headed nowhere.
G A D
She’s a brick and I'm drowning slowly.

I'm pretty sure the interlude doesn't have guitar. That's it.

Have fun with it.
====

Log In to leave a comment

After registration we will return you to the same place
Comments
face-with-monocle
If you wait a bit, some comments may appear here...

Shhh...