Beatsteaks logo

Summer Beatsteaks

  • 1
  • Share
  • Font Size
Beatsteaks – Summer
D#|-----------------------||
A#|-----------------------||
F#|-------7-7-7-7---------||
C#|-------7-7-7-7---------||
G#|-------x-x-x-x---------||
D#|-----------------------||

Beavy Part:

D#|--------------------------------||
A#|--------------------------------||
F#|-------7-7-7-7-x-x-x-x----------||
C#|-------7-7-7-7-x-x-x-x----------||
G#|-------5-5-5-5-x-x-x-x----------||
D#|--------------------------------||

Pre Verse:

D#|------------------||
A#|------------------||
F#|------------------||
C#|--2--4--2--4--2---||
G#|--2--4--2--4--2---||
D#|--0--2--0--2--0---||

Verse 2:

D#|------------------||
A#|------------------||
F#|-----7-7-7-7------||
C#|-----7-7-7-7------||
G#|-----5-5-5-5------||
D#|-----0-0-0-0------||

Chorus:

D#|-----------------------------------||
A#|-----------------------------------||
F#|-----------------------------------||
C#|--2-2-2-2--5-5-5-5--7-7-7-7--------||
G#|--2-2-2-2--5-5-5-5--7-7-7-7--------||
D#|--4-4-4-4--3-3-3-3--5-5-5-5--------||

Riff After 2nd Chorus:

D#|-------------------------------------||
A#|-------------------------------------||
F#|----7--7-----------------------------||
C#|----7--7--7-7-7h9p7------------------||
G#|----5--5------------9--5------------||
D#|-------------------------------------||

Final Chorus:

D#|----------------------------------------------------------------------------||
A#|----------------------------------------------------------------------------||
F#|----------------------------------------------------------------------------||
C#|--2-2-2-2--5-5-5-5--7-7-7-7--X4--Then---2-2-2-2--4-4-4-4--5-5-5-5--7-7-7-7--||
G#|--2-2-2-2--5-5-5-5--7-7-7-7-------------2-2-2-2--4-4-4-4--5-5-5-5--7-7-7-7--||
D#|--4-4-4-4--3-3-3-3--5-5-5-5-------------0-0-0-0--2-2-2-2--3-3-3-3--5-5-5-5--||

Log In to leave a comment

After registration we will return you to the same place
Comments
face-with-monocle
If you wait a bit, some comments may appear here...

Shhh...