Loading...
Beatles logo

You've Got To Hide Your Love Away Beatles

  • 0
  • Share
  • Transposing
    0
  • Font Size
Intro: G

G D/F# F G
Here I stand head in hand
C Fmaj7 C
Turn my face to wall
G D/F# F G
If she's gone I can't go on
C Fmaj7 C D
Feelin' two-foot sma-all
G D/F# F G
Everywhere people stare
C Fmaj7 C
Each and every day
G D/F# F G
I can see them laugh at me
C Fmaj7 C D
And I hear them saaaaaaaayyyy

E-----2-2-2-2---0-0-0-0---0-0-0-0---2-2-2-2---|
B-----3-3-3-3---3-3-3-3---3-3-3-3---3-3-3-3---|
G-----2-2-2-2---2-2-2-2---2-2-2-2---2-2-2-2---|
D---0-------------------------------0-0-0-0---|
A-------------3---------2---------0-----------|
E---------------------------------------------|

Chorus:
G C Dsus4 D Dsus2 D
Hey! You've got to hide your love away

E---3--3-3-3-3-2--2-2-2-2-0--0-0-0-0-2--2-2-|
B---3--3-3-3-3-3--3-3-3-3-3--3-3-3-3-3--3-3-|
G---2--2-2-2-2-2--2-2-2-2-2--2-2-2-2-2--2-2-|
D---0--0-0-0-0-0--0-0-0-0-0--0-0-0-0-0--0-0-|
A-------------------------------------------|
E-------------------------------------------|

G C Dsus4 D Dsus2 D
Hey! You've got to hide your love away

G D/F# F G
How could I even try
C Fmaj7 C
I can never win
G D/F# F G
Hearing them, seeing them
C Fmaj7 C D
In the state I'm in
G D/F# F G
How could she say to me
C Fmaj7 C
Love will find a way
G D/F# F G
Gather round all you clowns
C Fmaj7 C D
Let me hear you say

Chorus:
G C Dsus4 D Dsus2 D
Hey! You've got to hide your love away

E---3--3-3-3-3-2--2-2-2-2-0--0-0-0-0-2--2-2-|
B---3--3-3-3-3-3--3-3-3-3-3--3-3-3-3-3--3-3-|
G---2--2-2-2-2-2--2-2-2-2-2--2-2-2-2-2--2-2-|
D---0--0-0-0-0-0--0-0-0-0-0--0-0-0-0-0--0-0-|
A-------------------------------------------|
E-------------------------------------------|

G C Dsus4 D Dsus2 D
Hey! You've got to hide your love away

Anding Solo:
|--------12----------|
|-8--10------12S10---|
|--------------------|
|--------------------|
|--------------------|
|--------------------|

|----------10-8-----------|--------12---------|---------10-8--7-8-8-|-10----*|
|-----10-8-------10h12p10-|-8--10------12S10--|-8--10p8-------------|-------*|
|-12----------------------|-------------------|---------------------|-------*|
|-------------------------|-------------------|---------------------|-------*|
|-------------------------|-------------------|---------------------|-------*|
|-------------------------|-------------------|---------------------|-------*|

Log In to leave a comment

After registration we will return you to the same place
Comments
face-with-monocle
If you wait a bit, some comments may appear here...

Shhh...