Loading...
Beatles logo

Free As A Bird Beatles

  • 0
  • Share
  • Transposing
    0
  • Font Size
Intro: w/slide
A F#m Dm E A F#m Dm E
~~~~~~~~~~~~~~~~~~~ ~~~~~~~~~~~~~~~~~
|----------------|----------------|----------------|------------------|
|-/5-------------|----------5-1/2-|----------------|------------------|
|----------------|----------------|-/2-------------|--------(4)-2/7-5-|
|----------------|----------------|----------------|------------------|
|----------------|----------------|----------------|------------------|
|----------------|----------------|----------------|------------------|

A F#m Dm G C Am Esus4 E
~~~~~~~~~~~~~ ~~~~~~~~~~~~~~
|----------------|---------------------------------|----------------|
|----------------|------5-8-5/6/8-()5--------------|----------------|
|-/2-------------|---------------------------------|----------------|
|----------------|---------------------------------|----------------|
|----------------|---------------------------------|----------------|
|----------------|---------------------------------|----------------|

Verse 1:
A F#m Dm E A F#m
Free as a bird
Dm E A F#m
It's the next best thing to be
Dm G C Am Esus4 E
Free as a bird

A F#m Dm E A F#m
Homу, Homу and dry
Dm E A F#m
Like a homing bird I'll fly
Dm G C Am Esus4 E
As a bird on wings

Bridge 1:
Fmaj7 F#m7b5
What ever happened to the life that we oncу knew
G A A/G
Can we really live without each other
Fmaj7
Where did we loose the touch,
F#m7b5
That seemed eo mean so much
G E
It always made me feel so

Verse 1:
A F#m Dm E A F#m
Free as a bird
Dm E A F#m
It's the next best thing to be
Dm G C Am Esus4 E
Free as a bird

A F#m Dm E A F#m
Home, home and dry
Dm E A F#m
Like a homing bird I'll fly
Dm G C Am Esus4 E
As a bird on wings

Bridge 2:
Fmaj7 F#m7b5
What ever happened to the life that we once knew
G E
Always made me feel so free

Guitar Solo: w/slide
C Am Fm G C Am Fm G
~~~~~~~~~~~ ~~~~~~~~~~~
|----------------|----------------|----------------|-------------|
|-/17------------|--------18/20---|-20-17----------|-13/1615--8/-|
|----------------|----------------|----------------|-------------|
|----------------|----------------|----------------|-------------|
|----------------|----------------|----------------|-------------|
|----------------|----------------|----------------|-------------|

C Am Fm G A F#m ...
~~~~~
|-12--12/17-12-----|-8/11-10---3--|---9-------------
|------------------|--------------|-----------------
|------------------|--------------|-/9--------------
|------------------|--------------|-----------------
|------------------|--------------|-----------------
|------------------|--------------|-----------------
Free...

A F#m Dm E A F#m
Free as a bird
Dm E A F#m
It's the next best thing to be

Coda: w/slide
Dm G A F#m Dm E A F#m
|---------------|---------------|---------------|---------------|
|---------------|-/5-----(1)/2--|---------------|-----5------/7-|
|---------------|---------------|-/2------------|---------------|
|---------------|---------------|---------------|---------------|
|---------------|---------------|---------------|---------------|
|---------------|---------------|---------------|---------------|
Free as a bird Free as a bird

w/o slide
Dm E A F#m Dm G A
|---------------|---------------|---------------|---------------||
|--/1-----------|--/5----(1)/2--|---------------|--2------------||
|---------------|---------------|-/2------------|--2------------||
|---------------|---------------|---------------|--2------------||
|---------------|---------------|---------------|--0------------||
|---------------|---------------|---------------|---------------||
Free as a bird Oh______________.

Log In to leave a comment

After registration we will return you to the same place
Comments
face-with-monocle
If you wait a bit, some comments may appear here...

Shhh...

Versions

Most Popular
You Might Like