Loading...
Beatles logo

Day Tripper Beatles

  • 0
  • Share
  • Transposing
    0
  • Font Size
Riff 1:
E7 A7
E|-------------------------|-------------------------|
B|-------------------------|-------------------------|
G|-------------------------|-------------------------|
D|----------2-0----4---0-2 |-----------2-0---4---0-2-|
A|--------2------2---2-----|---------2-----2---2-----|
E|-0--3-4------------------|-0---3-4-----------------|

Riff 2:
E|----------------------|
B|----------------------|
G|-------------2--------|
D|---------4-2------2-4-|
A|---0-1--4----4--4-----|
E|-2--------------------|

E7
Got a good reason
E7
For taking the easy way out
A7
Got a good reason
E7
For taking the easy way out now

F#
She was a day tripper
F#
А one way ticket yeah
A7 G#7 C#
It took me so long to find out
B
But I found out

E7
She´s a big teaser
E7
She took me half the way there
A7
She´s a big teaser
E7
She took me half the way there now

F#
She was a day tripper
F#
А one way ticket yeah
A7 G#7 C#
It took me so long to find out
B
But I found out

E7
Tried to please her
E7
She only played one night stands
A7
Tried to please her
E7
She only played one night stands, now

F#
She was a day tripper
F#
А one way ticket yeah
A7 G#7 C#
It took me so long to find out
B
But I found out

F#
Day tripper
F#
Day tripper yeah
A7 G#7 C#
Day tripper
B
Day tripper yeah

Log In to leave a comment

After registration we will return you to the same place
Comments
face-with-monocle
If you wait a bit, some comments may appear here...

Shhh...

Most Popular
You Might Like