Beastie Boys logo

Fight Your Right To Party Beastie Boys

  • 0
  • Share
  • Font Size
Beastie Boys – Fight Your Right To Party
Beastie Boys fight for your right to party.
Tabbed by alleycat [email protected]

This is an ill song and easy too.

Artist-beastie boys
Song---fight for your right
Album--licensed to ill
Tuning-standard low to high eadgbe

E-----------
B-----------
G-----------
D---6------- / let this ring
A---6------- / hit the e then the rest of
E---4-------/ the strings listen to the song
to understand.

E-----------------------------
B-----------------------------
G--4--6--4--------------------
D--4--6--4--6----------------- with this part
A--2--4--2--6----------------- follow the beat go
E-----------4----------------- 2 3 4 and 2 3 4 and
The verses are simple just palm mute the begining part i don't have the solo so if anyone wants to e-mail me it send it to [email protected] until next time pimp on all ya motha fuckers

:: Ultimate Guitar Archive ::
Http://www.ultimate-guitar.com

Log In to leave a comment

After registration we will return you to the same place
Comments
face-with-monocle
If you wait a bit, some comments may appear here...

Shhh...

Most Popular
You Might Like