Beach Boys logo

Surfin Usa Beach Boys

  • 1
  • Share
  • Transposing
    0
  • Font Size
Beach Boys – Surfin Usa
Surfin' USA
Another Great rocking toon By:The Beach Boys

Tabbed By:Jordan Waters

Questions Comments---> [email protected]

Standard Tuning--> E A D G

Surfin U.S.A.

Verse

G7 C7 G7 C7
[---------------------0--------------------------------0-----------------]
[-----0-------------2---2--------------0-------------2---2---------------]
[---2---2---------3-------3----------2---2---------3-------3-------------]
[-3-------3--rrrr-------------rrrr-3-------3--rrrr------------rrrr-------]

F C7 G7 C7
[----------------------0-------------------------------0-----------------]
[--------------------2---2-------------0-------------2---2---------------]
[----0-3-0---------3-------3---------2---2---------3-------3-------------]
[--1-------1--rrrr------------rrrr-3-------3--rrrr--------------rrrr-----]

Chorus
G7 C7 G7 C7
[-----------------------0-------0--------------------------0-------0-----]
[-----0--------0------2---2---2---2------0-------0-------2---2---2---2---]
[---2---2----2---2--3-------3----------2---2---2---2---3-------3---------]
[-3-------3--------------------------3-------3---------------------------]

F C7 G7 C7
[---------------------0-------0------------------------0------------------]
[-------------------2---2---2---2------0-------0-----2---2----------------]
[---0-3-0---0-3-0-3-------3----------2---2---2---2-3-------3--------------]
[-1-------1------------------------3-------3------------------------------]

Beres The order (It helps If you have the music to play along with)

Verse

Chorus

Verse

Chorus

During the Instrumental-->Chorus againVerse

Log In to leave a comment

After registration we will return you to the same place
Comments
face-with-monocle
If you wait a bit, some comments may appear here...

Shhh...