Loading...
  • 0
  • Share
  • Transposing
    0
  • Font Size
For You-

Intro:
E--------3--3--3--3---3--3--3---3--3--3--3--3--3--3--3---3--3--3--3--3--|
B--------3--3--3--3---3--3--3---3--3--3--3--3--3--3--3---3--3--3--3--3--|
G--------0--2--4--4p2-0--2--2h4-2--0--2--4--0--2--4--4p2-0--2--4--2--0--|
D-----------------------------------------------------------------------|
A-----------------------------------------------------------------------|
E-----------------------------------------------------------------------|

Verse:
I have set aside everything I love, I have saved everything else for you
E--------3--3--3--3---3--3--3---3--3--3--3--3--3--3--3---3--3--3--3--3--|
B--------3--3--3--3---3--3--3---3--3--3--3--3--3--3--3---3--3--3--3--3--|
G--------0--2--4--4p2-0--2--2h4-2--0--2--4--0--2--4--4p2-0--2--4--2--0--|
D-----------------------------------------------------------------------|
A-----------------------------------------------------------------------|
E-----------------------------------------------------------------------|

I cannot decide what this doubt's made of, though i've thought over it through and through
E--------3--3--3--3---3--3--3---3--3--3--3--3--3--3--3---3--3--3--3--3--|
B--------3--3--3--3---3--3--3---3--3--3--3--3--3--3--3---3--3--3--3--3--|
G--------0--2--4--4p2-0--2--2h4-2--0--2--4--0--2--4--4p2-0--2--4--2--0--|
D-----------------------------------------------------------------------|
A-----------------------------------------------------------------------|
E-----------------------------------------------------------------------|
(Ed plays this riff throughout every verse, but if you want to play rhythm chords, here
Are)
G G/A G G G/A G
In a book in a box high upon a shelf, in a locked and guarded vault
Em G G/A
Are the things I keep only for myself, it's your fate but it's not your
G
Fault

Chorus:
And for every useless reason I know there's a reason not to care
C G/B G/A G C G/B G/A G
E---------3---3---3---3---------3---3---3---3---------------------------|
B---------3---3---3---3---------3---3---3---3---------------------------|
G---------0---0---0-------------0---0---0---0---------------------------|
D---------2---0---0-------------2---2---0---0---------------------------|
A---0-2-3-3-2-2-0-0---2---0-2-3-3-2-2-0-0---2---------------------------|
E-------------------3-3-------------------3-3---------------------------|

C G/B G/A G C G/B F D
If I hide myself where ever I Go Am I ever really there?

That's really all you need to know to play the rest of the song.
Enjoy!

Log In to leave a comment

After registration we will return you to the same place
Comments
face-with-monocle
If you wait a bit, some comments may appear here...

Shhh...