Бадло logo

Опа Бадло

  • 0
  • Share
  • Transposing
    0
  • Font Size
Бадло – Опа
Вступление: (играют 2 гитары одна функции(аккорды)(которые над соло), вторая соло с
Эффектом Distortion)
Am Dm E Am E
E------------------------------------------------------------------------|
H|--10-9-10-12-13-12-10-9-10-8-------------------------------------------------------|
G------------------10-9-10-9-7-5-4---4-7-9-7-5-4-5-7-4-5-3-4-6-7---------|
D----------------------------------6-------------------------------------|
A------------------------------------------------------------------------|
E------------------------------------------------------------------------|
Am Dm E
E-----------------------------------------------------------|
H|--10-9-10-12-13-12-10-9-10-8------------------------------^-----------|
G------------------10-9-10-9-7-5-4---4-7-9-7-5-4-9----------|
D----------------------------------6------------------------|
A-----------------------------------------------------------|
E-----------------------------------------------------------|
Am Dm
По бульварному кольцу рассекают Мерседесы,
E Am E
Но для нас не представляют никакого интереса.
Am Dm
Мы гуляем, мы петляем самой легкою походкой,
E
Потому что нас накрыла пиво, водка, пиво, водка. О-о-о-й!!!

Бас:( Для куплета в припеве играется по функциям)
A|--------5-5--5—7-7---7—7-7--5-5--3-3--2-2----------------5-5--5—7-7-7-7-7-7-7-7—|
E|5-5—5-------------------------------------------5-5---5----------------------------------|

Припев:
Am Dm
Лай, ла, ла, ла!!! Опа!!!
E Am
Лай, ла, ла, ла!!! Опа!!!
Am Dm
Лай, ла, ла, ла!!! Опа!!!
E
Ла-а-а-й!!!

На тверской за мармеладом эскадрон гусар летучих,
Девки словно на параде все равно все будут в куче.
Нам до фени нету денег, да и были б, мы б не взяли.
Мы ж с Серегой джентльмены, ну а девки эти… Ой мама!!!

Припев:

Мы поседели у камина. Маша в кашу, я в ломину.
Вышла лажа и промашка, нужно было брать Наташку.
Я куплю себе папаху ветер в ухо дуть не будет.
Я ж теперь люблю Наташку, а она конфеты любит У-у-й!!!

Соло: (то же что и во вступлении)

Эх ты время дворовое карамель на палочке,
Две гитары три аккорда поцелуй на лавочке.
Распатроню, разберданю вспомнится, потом простится,
Я люблю все эти морды, я люблю все эти лица! Ой люблю!!!

Припев:

Жизнь как звонкая монета звякнула, хлобысь и нету,
Вот и все конец куплета было, сплыло, песня спета.
Хлопнули в ладоши звонко, эхо тихо улетает.
Эх, мальчишки, ах девчонки всем привет уже светае-ет!!!

Припев:

Log In to leave a comment

After registration we will return you to the same place
Comments
face-with-monocle
If you wait a bit, some comments may appear here...

Shhh...

Most Popular