Loading...
  • 0
  • Share
  • Transposing
    0
  • Font Size
(Intro)
G---------------------------------------]
D---------------------------------------]
A------------3----------------5-3-------] repeat alot of times
E-5-5-5-5-5----3-5--5-5-5-5-5-----3-5---]
Other Part
G---------------------------------]
D---------------------------------]
A-------------5-3-----------------] 2x
E-3-5-3-5-3-5-----3---------------]

It is a fun song to play and easy to.
It is a good song for a band that just started out to play!
ENJOY!:-}
Very Fun to play! Have Fun with it!

Log In to leave a comment

After registration we will return you to the same place
Comments
face-with-monocle
If you wait a bit, some comments may appear here...

Shhh...

Versions

Most Popular