Loading...
Audioslave logo

I Am The Highway Audioslave

  • 0
  • Share
  • Transposing
    0
  • Font Size
Intro:
A
E|-------------0------------------|
B|-------------1------------------|
G|-------------2------------------|
D|-------------2------------------| x4
A|-------0-----0------------------|
E|--------------------------------|

Verse:
F C G Am
Pearls And swine bereft of me
F C G Am
Long and weary my road has been
F C Am
I was lost in the cities
G C Am
Alone in the hills
F C G C Am
No sorrow or pity for leaving i feel

Chorus:
C G Dm
I am not your rolling wheels
Am
I am the highway
C G Dm
I am not your carpet ride
E slide to 007500
I am the sky...

Guitar 2
E|-----------------------|-------------------------|
B|--1--------------------|--1----------------------|
G|-----------------------|-------------------------|
D|----2------------------|----2--------------------|
A|------0--3-----5--0----|------0--3-----5---------|
E|------------3----------|------------3-----0------|

Bridge:
A
E|-------------0------------------|
B|-------------1------------------|
G|-------------2------------------|
D|-------------2------------------| x4
A|-------0-----0------------------|
E|--------------------------------|

Verse 2:
F C
Friends and liars
G Am
Don't wait for me
F C
Cause i'll get on
G Am
All by myself
F C Am
I put millions of miles
G C Am
Under my heels
F C Am G C Am
And still too close to you i feel

Chorus:
C G Dm
I am not your rolling wheels
Am
I am the highway
C G Dm
I am not your carpet ride
Am
I am the sky
C G Dm
I am not your blowing wind
Am
I am the lightining
C G Dm
I am not your autumn moon
007500 Slide to E x2
I am the ni.............ght
E 007500
The ni.............ght

Guitar 2
E|----------------------------------|
B|--1-------------------------------|
G|-------------------0--------------|
D|----2------------2----------------|
A|------0--3-----------0----5--0----|
E|------------3---------------------|

E|----------------------------------|
B|--1-------------------------------|
G|-----------------0----------------|
D|----2----------2----7-------------|
A|------0--3--------------5--0------|
E|------------3---------------------|

E|----------------------------------|
B|--1-------------------------------|
G|-------------------0--------------|
D|----2------------2----------------|
A|------0--3-----------0----5--0----|
E|------------3---------------------|

E|----------------------------------|
B|--1-------------------------------|
G|-----------------0----------------|
D|----2----------2----7-------------|
A|------0--3-------------5----------|
E|------------3--------------0------|

Chorus 3:
C G Dm
I am not your rolling wheels
Am
I am the highway
C G Dm
I am not your carpet ride
Am
I am the sky
C G Dm
I am not your blowing wind
Am
I am the lightining
C G Dm
I am not your autumn moon
E 007500(If thats a chord)
I am the ni.............ght
E, 007500
The ni.............ght

Guitar 2
E|----------------------------------|
B|--1-------------------------------|
G|-------------------0--------------|
D|----2------------2----------------|
A|------0--3-----------0----5--0----|
E|------------3---------------------|

E|----------------------------------|
B|--1-------------------------------|
G|-----------------0----------------|
D|----2----------2----7-------------|
A|------0--3--------------5--0------|
E|------------3---------------------|

E|----------------------------------|
B|--1-------------------------------|
G|-------------------0--------------|
D|----2------------2----------------|
A|------0--3-----------0----5--0----|
E|------------3---------------------|

E|----------------------------------|
B|--1-------------------------------|
G|-----------------0----------------|
D|----2----------2----7-------------|
A|------0--3-------------5----------|
E|------------3--------------0------|

Outro:
A
E|-------------0------------------|
B|-------------1------------------|
G|-------------2------------------|
D|-------------2------------------| x8
A|-------0-----0------------------|
E|--------------------------------|

Log In to leave a comment

After registration we will return you to the same place
Comments
face-with-monocle
If you wait a bit, some comments may appear here...

Shhh...