Loading...
Audioslave logo

Getaway Car Audioslave

  • 0
  • Share
  • Transposing
    0
  • Font Size
Audioslave : getaway car
Tabbedby: [email protected]

Standard tunning

Intro/verse/chorus/outro:
E|-------------------------------------0--|
B|------------------8---------------------|
G|--2----4--5--5--------2----4--5--5------|
D|--3----5--5--7--------3----5--5--7------|
A|----------------------------------------|
E|----------------------------------------|

Prechorus:
C F Em Dm Am Bm E E7
E|-(0)----------1--3--0-------------------(0)------0--|
B|--1----0-1-3--1--1--0---3-1-0--3--1--3---0---3------|
G|--0----0-0-0--2--2--0---0-0-0--2--2--4---1---1------|
D|--2-----------3--x--2---------(0)(0)-----2---2------|
A|--3----------(3)----2--------------------2---2------|
E|--------------------0--------------------0---0------|
when playin F just
move pinky down
Am F Em Dm Am Bm E E7
E|-(0)----------1--3--0-------------------(0)------0--|
B|--1----0-1-3--1--1--0---3-1-0--3--1--3---0---3------|
G|--2----2-2-2--2--2--0---0-0-0--2--2--4---1---1------|
D|--2-----------3--x--2---------(0)(0)-----2---2------|
A|--0----------(3)----2--------------------2---2------|
E|--------------------0--------------------0---0------|

Solo: *full *1/2
E|---------------------------------------------------------------------
B|---------------------------------------------------------------------
G|----------5------------------------------5-7b--b^--b^--5-4--b^-------
D|------5-7---7--------5-7-5--------5----7-----------------------5---5-
A|--5-7------------5-7-------7--5-7--------------------------------7---
E|---------------------------------------------------------------------
*1/2 *1/2 *1/2 *1/2 *full
------------------------------------------------------------7-----|
---8-----8-8-8--------------7b----------------------------5-------|
---7b----7---7b---------5-7-7b----7b-5-----7b-5--------5----------|
-------------------5-7-----------------7-5------7-5-7-------------|
------------------------------------------------------------------|
------------------------------------------------------------------|

All bends are bend and release.
On the b^, while the note prior is ringing, bend it w/o stiking the note.
..that's about it. hope you enjoy it. have fun w/ it. comments welcomed.
Order of song:
Intro
Verse 2x
Prechorus
Verse 3x
Prechorus
Chorus 2x
Solo
Prechorus
Chorus 3x

Log In to leave a comment

After registration we will return you to the same place
Comments
face-with-monocle
If you wait a bit, some comments may appear here...

Shhh...