Loading...
Audioslave logo

Cochise Audioslave

  • 0
  • Share
  • Transposing
    0
  • Font Size
AUDIOSLAVE                TABBED BY MARK ARMENTA

COCHISE

--------------------------------------------------------------------

-X-X-X-X--X-X-X-X--X-X-X-X--X-X-X-X---------------------------------
-X-X-X-X--X-X-X-X--X-X-X-X--X-X-X-X-------PLAY 7x-------------------
-X-X-X-X--X-X-X-X--X-X-X-X--X-X-X-X---------------------------------
-X-X-X-X--X-X-X-X--X-X-X-X--X-X-X-X---------------------------------

----0------------(0)------------(0)----------------------
-0--0------------(0)------------(0)----------------------
-2--2------------(2)------------(2)----------------------
-2--2------------(2)------------(2)----------------------
----X----------------------------------------------------
PICK SCRAPE WHILE LETTING RING OUT AND PLAY 6X

MAIN RIFF (DELAY EFFECT OFF) (^)=HAMMER

----------------------------------------|
----------------------------------------|
----------------------------------------|
-0^2--0---2-------0^2-:--0--------------|
--------2---2--------------2------------|
--------------3-0------------3-0--------|
================================
CHORUS | REPEAT AS NEEDED |
--------------------------------------|-------------------------------|
--------------------------7--------8-----------------------------------
--------------------------7--------8-----------------------------------
-0^2---0-----0------------7--------8----0^2--0^2----------------------0
----------2-----2---------5--------6---------------0----------0----2---
-------------------3--0---5--------6-----------------3--0---3----------

INTERLUDE
(WITH DELAY EFFECT ON TREM.PICK)(32nd NOTES)

__(BEND EACH NOTE 1/2)_______________________
|---------------------------------------------|-----------
|---------------------------------------------|------.------
-2--2--2--2---2--2--2--2-----2--2--2--2---2--2----2-2-/14--
-----------------------------------------------------------
-----------------------------------------------------------
-----------------------------------------------------------

B=bend r=release each bend is 1/2

----------------------------------------------------------------------

-14b-r14---14b-r14---14b-r14---14b-r14---14b-r14---14b--14-14-14(14)
---------------------------------------------------------------------0
---------------------------------------------------------------------0

(GO BACK TO MAIN RIFF)

BRIDGE

---.---------------------------------------------------
--4-----------------4-----(4)--------------------------REPEAT
-x------------------------------------.----------------
--------2-----(2)--------------------2-------x---------
-------------------------------------------------------

---------------------------------R-|-----------------
---------------------------------E-|-----------------
----.----------------------------P-|------------7----
-0^2-------------0^2--(2)--------E-|-2----------7----
----------------------------.----A-|------------5----
----------0--(0)-----------0---x-T-|-----0-----------

------------------------------------------------

------------------------------------------------REPEAT
-9-----9--------------------------------0------
-7-----7----0-------------.-----0----2---------
----------------3--0--(0)-3---------------------

AND WELL THATS ABOUT IT MORE AUDIOSLAVE SONGS COMING SOON!

Log In to leave a comment

After registration we will return you to the same place
Comments
face-with-monocle
If you wait a bit, some comments may appear here...

Shhh...