Loading...
Ataris logo

My Reply Ataris

  • 0
  • Share
  • Transposing
    0
  • Font Size
-----------------------------------------------------------------
My Reply - The Ataris
-----------------------------------------------------------------
This tab is the author's work and represents their interpretation
Of the song.

Written by: Kris Roe

Tabbed by: Rory Downham
Email: [email protected]

Tuning: Standard: ( E A D G B e) use distortion
-----------------------------------------------------------------
Intro

Gtr1
E|----------------------------------------------
B|----15-----------------15---------------------
G|-------14-12-11--12-14-----14-12-11--12-14----
D|----------------------------------------------
A|----------------------------------------------
E|---------------------------------------------- Play 4 times

E|------------------------------------------------------
B|---15-15--------------15-----------------------------
G|---------12-12-11-11----12-12-12-11-11-14-14-11-11---
D|------------------------------------------------------
A|------------------------------------------------------
E|------------------------------------------------------ Play 4 times

Gtr2
E|-----|-----|-----|---------
B|-----|-----|-----|---------
G|--7--|--4--|--5--|---------
D|--7--|--4--|--5--|--5---7--
A|--5--|--2--|--3--|--5---7--
E|-----|-----|-----|--3---5-- Play twice (palm muted 1st time)

Verse:

Gtr2 (palm muted)
E|-----|-----|-----|-------
B|-----|-----|-----|-------
G|--7--|--4--|--5--|-------
D|--7--|--4--|--5--|--5----
A|--5--|--2--|--3--|--5----
E|-----|-----|-----|--3----

After that sequence,

Gtr2 plays (palm muted)... Gtr1 plays over the top...(four times)
E|-----|-----|-----|---------|--------------------------------------------
B|-----|-----|-----|---------|-----15----------------15-------------------
G|--7--|--4--|--5--|---------|-------14-12-11--12-14-----14-12-11--12-14--
D|--7--|--4--|--5--|--5---7--|--------------------------------------------
A|--5--|--2--|--3--|--5---7--|--------------------------------------------
E|-----|-----|-----|--3---5--|--------------------------------------------

Bridge:

E|--------|------------|--------|-------
B|--------|------------|--------|-------
G|-----7--|------------|-----7--|-------
D|--5--7--|--7---9-7---|--5--7--|--7----
A|--5--5--|--7---9-7---|--5--5--|--7----
E|--3-----|--5---7-5---|--3-----|--5---- Play twice

Chorus:

E|-----|-----|-----|------
B|-----|-----|-----|------
G|--7--|--4--|--5--|------
D|--7--|--4--|--5--|--5---
A|--5--|--2--|--3--|--5---
E|-----|-----|-----|--3---

E|-----|-----|-----|---------
B|-----|-----|-----|---------
G|--7--|--4--|--5--|---------
D|--7--|--4--|--5--|--5---7--
A|--5--|--2--|--3--|--5---7--
E|-----|-----|-----|--3---5--

(1:53):
Gtr2 plays...... Gtr1 plays.......(twice).
E|--------------------------------------------------------------
B|--------------------15-----------------15---------------------
G|--7--------------------14-12-11--12-14-----14-12-11--12-14----
D|--7-----------------------------------------------------------
A|--5-----------------------------------------------------------
E|--------------------------------------------------------------

Then Gtr2 plays......
E|-----|-----|-----|-----
B|-----|-----|-----|-----
G|--7--|--4--|--5--|-----
D|--7--|--4--|--5--|--5--
A|--5--|--2--|--3--|--5--
E|-----|-----|-----|--3--

E|-----|-----|-----|----------
B|-----|-----|-----|----------
G|--7--|--4--|--5--|----------
D|--7--|--4--|--5--|--5---7---
A|--5--|--2--|--3--|--5---7---
E|-----|-----|-----|--3---5---
(During this time Gtr1 plays the second riff of the intro)

Bridge:

E|--------|------------|--------|-------
B|--------|------------|--------|-------
G|-----7--|------------|-----7--|-------
D|--5--7--|--7---9-7---|--5--7--|--7----
A|--5--5--|--7---9-7---|--5--5--|--7----
E|--3-----|--5---7-5---|--3-----|--5---- Play twice
(Not intirely sure on lead part here, similar notes to other lead riffs)

Final chorus:

E|-----|-----|-----|------
B|-----|-----|-----|------
G|--7--|--4--|--5--|------
D|--7--|--4--|--5--|--5---
A|--5--|--2--|--3--|--5---
E|-----|-----|-----|--3--- Play 3 times, then....

E|-----|-----|-----|----------
B|-----|-----|-----|----------
G|--7--|--4--|--5--|----------
D|--7--|--4--|--5--|--5---7---
A|--5--|--2--|--3--|--5---7---
E|-----|-----|-----|--3---5---

Gtr2 ends on... Gtr1 (outro).......(three times)
E|-----------------------------------------------------------
B|--------------------15-----------------15------------------
G|--7--------------------14-12-11--12-14-----14-12-11--12-14-
D|--7--------------------------------------------------------
A|--5--------------------------------------------------------
E|-----------------------------------------------------------

Gtr1 (outro continued).......
E|-----------------------------
B|--15------------------15-----
G|-----14-12-11--14-11--11-----
D|-----------------------------
A|-----------------------------
E|-----------------------------

Log In to leave a comment

After registration we will return you to the same place
Comments
face-with-monocle
If you wait a bit, some comments may appear here...

Shhh...