Loading...
Ataris logo

I Wont Spend Another Night Alone Ataris

  • 0
  • Share
  • Transposing
    0
  • Font Size
Intro:  Guitar 1  (Pick each chord 12x)  (2x)
E|---------------------------------------------------------------------------|
B|---------------------------------------------------------------------------|
G|---5--7--3-----------------------------------------------------------------|
D|3--5--7--3-----------------------------------------------------------------|
A|3--3--5--1-----------------------------------------------------------------|
E|1--------------------------------------------------------------------------|

Riff A:(listen to the song to hear this after the B flat chord)
(Guitar 2)
E|-6-5---8-6-5-6-5--|
B|-----6------------|
G|------------------|
D|------------------|
A|------------------|
E|------------------|

Intro: Guitar 2 (2x)
E|---------------------------------------------------------------------------|
B|---------------------------------------------------------------------------|
G|---------------------------------------------------------------------------|
D|3-3-3-3-3-3-------------------------------------3-3-3-3-3-3-2-2-2-0-0-0----|
A|3-3-3-3-3-3-1-1-1-0-0-0-3-3-3-3-3-3-1-1-1-0-0-0-0-0-0-0-0-0-0-0-0-3-3-3----|
E|1-1-1-1-1-1-1-1-1-1-1-1-3-3-3-3-3-3-3-3-3-3-3-3----------------------------|

Intro Cont'd: Guitar 2
E|---------------------------------------------------------------------------|
B|---------------------------------------------------------------------------|
G|---5-2---3-2---5-3-2-------------------------------------------------------|
D|-3-----3-----3-------------------------------------------------------------|
A|---------------------------------------------------------------------------|
E|---------------------------------------------------------------------------|

Verse: (Repeat Intro 2x with P.M) Both Guitar Parts

Chorus: (Repeat Intro 2x) Both Guitar Parts

Repeat Verse

Part After Verse: Guitar 1 (2x) (If I had one wish...)
E|---------------------------------------------------------------------------|
B|---------------------------------------------------------------------------|
G|7-7-7-7--7-5--3-3-3-3--3-2--------------------------5-5-5-5-5-5-5-5-5-5-5-5|
D|7-7-7-7--7-5--3-3-3-3--3-2--3-3-3-3-3-3-3-3-3-3-3-3-5-5-5-5-5-5-5-5-5-5-5-5|
A|5-5-5-5--5-3--1-1-1-1--1-0--3-3-3-3-3-3-3-3-3-3-3-3-3-3-3-3-3-3-3-3-3-3-3-3|
E|----------------------------1-1-1-1-1-1-1-1-1-1-1-1------------------------|

Part After Verse: Guitar 2 (If I had one wish...) (2x)
E|---------------------------------------------------------------------------|
B|---------------------------------------------------------------------------|
G|7-7-7-7--7-9-10-10-10-10--10-12--14-14-14-14-14-14--14-14-14-14--15--15-15-|
D|x-x-x-x--x-x--x--x--x--x---x--x---x--x--x--x--x--x---x--x--x--x---x---x--x-|
A|5-5-5-5--5-7--8--8--8--8---8-10--12-12-12-12-12-12--12-12-12-12--13--13-13-|
E|---------------------------------------------------------------------------|

Part After Verse Cont'd: Guitar 2 End on a C octave instead of the G octave
on the 2nd time around.
E|---------------------------------|-----------------------------------------|
B|---------------------------------|-End On-------Instead of-----------------|
G|15-15-15-15-12-12-12-12-12-12----|--17----------------12-------------------|
D|-x--x--x--x--x--x--x--x--x--x----|---x-----------------x-------------------|
A|13-13-13-13-10-10-10-10-10-10----|--15----------------10-------------------|
E|---------------------------------|-----------------------------------------|

Next Part: Guitar 1 (Pick each chord 12x) 2x (The things you make me...)
E|---------------------------------------------------------------------------|
B|---------------------------------------------------------------------------|
G|-----3---------5-----------------------------------------------------------|
D|5----3----3----5-----------------------------------------------------------|
A|5----1----3----3-----------------------------------------------------------|
E|3---------1----------------------------------------------------------------|
PM PM PM PM

Next Part: Guitar 2 (Strumming isn't totally correct but you get the idea)
E|---------------------------------------------------------------------------|
B|---------------------------------------------------------------------------|
G|-12-12-12-12-12-12-12-14--15-15-15-15-15-15-15-15-12--14-14-14-14-14-14-14-|
D|--x--x--x--x--x--x--x--x---x--x--x--x--x--x--x--x--x---x--x--x--x--x--x--x-|
A|-10-10-10-10-10-10-10-12--13-13-13-13-13-13-13-13-10--12-12-12-12-12-12-12-|
E|---------------------------------------------------------------------------|

Next Part Cont'd: Guitar 2
E|---------------------------------------------------------------------------|
B|---------------------------------------------------------------------------|
G|14-14-14-14-14--15-15-15-15-15-15-15-15-14-12-12-12-12-12-12-12-12-14------|
D|-x--x--x--x--x---x--x--x--x--x--x--x--x--x--x--x--x--x--x--x--x--x--x------|
A|12-12-12-12-12--13-13-13-13-13-13-13-13-12-10-10-10-10-10-10-10-10-12------|
E|---------------------------------------------------------------------------|

Next Part Cont'd: Guitar 2
E|---------------------------------------------------------------------------|
B|---------------------------------------------------------------------------|
G|15-15-15-15-15-15-15-15--16-16-16-16--16-16-16-16--16-16-16-16-16-17--17x--|
D|-x--x--x--x--x--x--x--x---x--x--x--x---x--x--x--x---x--x--x--x--x--x---xx--|
A|13-13-13-13-13-13-13-13--14-14-14-14--14-14-14-14--14-14-14-14-14-15--15x--|
E|---------------------------------------------------------------------------|

Repeat Chorus: 2x (Both Guitar Parts)

Solo: Guitar 1 (Play Guitar 1's Intro Part) 2x

Solo: Guitar 2
E|-----------------------------6-5---8-6-5--6-5---8-6-5----------------------|
B|-6-5-6-5-6-5-6-8-6-5-6-5-6-5-----6------------6-------6-5-6-8-6-5-6-5-6-8--|
G|---------------------------------------------------------------------------|
D|---------------------------------------------------------------------------|
A|---------------------------------------------------------------------------|
E|---------------------------------------------------------------------------|

Solo Cont'd: Guitar 2
E|---------------------------------------------------------------------------|
B|-6-5-6-5-6-8-6-5-3---------------------------------------------------------|
G|---------------------------------------------------------------------------|
D|---------------------------------------------------------------------------|
A|---------------------------------------------------------------------------|
E|---------------------------------------------------------------------------|

Ending: Guitar 1 (Play Guitar 1's Intro Part) 2x

Ending: Guitar 2 Let ring first time, then strum each 12x next time around
E|---------------------------------------------------------------------------|
B|---------------------------------------------------------------------------|
G|-10--9--10-----------------------------------------------------------------|
D|--x--x---x--8--------------------------------------------------------------|
A|--8--7---8--8--------------------------------------------------------------|
E|------------6--------------------------------------------------------------|

End On: Both Guitars
E|-------|
B|-------|
G|-------|
D|---3---|
A|---3---|
E|---1---|

Log In to leave a comment

After registration we will return you to the same place
Comments
face-with-monocle
If you wait a bit, some comments may appear here...

Shhh...