Loading...
Animals logo

Bring It On Home To Me Animals

  • 0
  • Share
  • Transposing
    0
  • Font Size
G D
If you ever change your mind
G G7 C
About leaving, leaving me behind
G
Oh, bring it to me
D C
Bring your sweet loving
D G
Bring it on home to me
C G D
(yeah, yeah, yeah, yeah, yeah, yeah)

(Bass)
G D C
G |----------|----------|-----------|
D |----------|---4-7-47-|---2-5-25--|
A |---2-5-25-|-5--------|-3---------|
E |-3--------|----------|-----------|

C D G C G D
G |---------------------|-----------------------|-----------------------||
D |---------------------|-----------------------|-----------------------||
A |--3---3-4-5---3-2----|----------2-3---3-2----|--------2-3-5---3-2-0--||
E |------------------5--|--3---3-5-----------5--|--3---3----------------||

G C G C
G |---------------------------|---------------------------|
D |---------------------------|---------------------------|
A |------------2-3-3-3-3-2----|------------2-3-3-3-3-2----|
E |--3-3-3-3-5-------------5--|--3-3-3-3-5-------------5--|

G C G G#7 G7
G |---------------------------|--------------------------||
D |---------------------------|--------------------------||
A |------------2-3-3-3-3-2----|--------------------------||
E |--3-3-3-3-5-------------5--|--3---4----3--------------||

(Solo)
G D G C
E |------------||-----------------|-----------------|---------|-0--------------|
B |------------||-0-0-------------|-0---------------|-3-3--3-4|---1------------|
G |----------0-||---------------0-|---2-----------0-|---------|---------------0|
D |-0-0-0--2---||------0-0-0--2---|------0-0-0--2---|---------|------0-0-0--2--|
A |------------||-----------------|-----------------|---------|----------------|
E |------------||-----------------|-----------------|---------|----------------|

G D C D G C G D
E |-------------------------|-------------------------|---------------|-------||
B |-0---------0-------------|-------------------------|---------------|-------||
G |---------0---2---------2-|-0---------0-----------0-|-0-----------0-|-0-----||
D |---0-0-0-------0-0-0-4---|---------2---4-0-0-0-2---|----0-0-0--2---|-----0-||
A |-------------------------|---3-3-3-----------------|---------------|-------||
E |-------------------------|-------------------------|---------------|-------||

Verse 2:
You know I laughed, when you left
But now I know, I only hurt myself
Oh, oh, bring it to me, bring your sweet loving
Bring it on home to me

Verse 3:
I'll give you jewelry, money too
And that's not all, all I'd do for you
Oh, oh, bring to me, bring your sweet loving
Bring it on home to me

Verse 4:
You know I'll always be your slave
Till I'm dead, and buried in my grave
Oh, oh, bring to me, bring your sweet loving
Bring it on home to me

Verse 5 = 1

Log In to leave a comment

After registration we will return you to the same place
Comments
face-with-monocle
If you wait a bit, some comments may appear here...

Shhh...