Loading...
American Head Charge logo

All Wrapped Up American Head Charge

  • 0
  • Share
  • Transposing
    0
  • Font Size
Dropped d

Intro
0-0-0-0-0-0-0-0h1-0-0-0-0-0-0-0-0h10h1-0-0-0-0-0-0-0-0h1
--------------------------------------------------------
--------------------------------------------------------
--------------------------------------------------------
--------------------------------------------------------
--------------------------------------------------------

0-0-0-0-0-0-0-------------------------------------------
--------------------------------------------------------
--------------------------------------------------------
--------------------------------------------------------
--------------------------------------------------------
--------------------------------------------------------

Verse riff A
Xxxx1111x1x1x111-----xxxx1111x1x1x111-----xxxx1111x1x1x111
Xxxx1111x1x1x111-----xxxx1111x1x1x111-----xxxx1111x1x1x111
----------------------------------------------------------
----------------------------------------------------------
----------------------------------------------------------
----------------------------------------------------------

Xxxx1111x1x1x111------------------------------------------
Xxxx1111x1x1x111------------------------------------------
----------------------------------------------------------
----------------------------------------------------------
----------------------------------------------------------
----------------------------------------------------------

Verse riff B
0-0-0-0-0-0-0-0-0-0-0-0-0-0-0-0-0-0-0-0-0-0-0-0-0-0-0-0-0-
----------------------------------------------------------
----------------------------------------------------------
----------------------------------------------------------
----------------------------------------------------------
----------------------------------------------------------

Keep doing riff b until martin screams, then do verse riff a for 1 measure

Chorus (1 measure)
3---6---5---8---2--2---2-2
3---6---5---8---2--2---2-2
--------------------------
--------------------------
--------------------------
--------------------------

Go back to verse riff a&b then chorus one more time

Now
333333333333333222222222222222333333333333333222222222222222
333333333333333222222222222222333333333333333222222222222222
------------------------------------------------------------
------------------------------------------------------------
------------------------------------------------------------
------------------------------------------------------------

3333333333/8---222224444466666
3333333333/8---222224444466666
------------------------------
------------------------------
------------------------------
------------------------------

3333444466668888--3333444466668888-3333444466668888
3333444466668888--3333444466668888-3333444466668888
---------------------------------------------------
---------------------------------------------------
---------------------------------------------------
---------------------------------------------------

33334444////////////////////////
33334444///////////////////////
--------------------------------
--------------------------------
--------------------------------
--------------------------------

2 measures
0----0----0----0----0----0----0----0-1
0----0----0----0----0----0----0----0-1
--------------------------------------
--------------------------------------
--------------------------------------

2 measures
0-1-----0101-01
0-1-----0101-01
---------------
---------------
---------------
---------------

Rest for 4 counts then do verse riff A TWICE and then...
0-1-----0101----0-1-----0101----0-1-----0101-1-01-----0101
0-1-----0101----0-1-----0101----0-1-----0101-1-01-----0101
----------------------------------------------------------
----------------------------------------------------------
----------------------------------------------------------
----------------------------------------------------------

Pm......
333333330
333333330
---------
---------
---------
---------

That's it, easy as hell

Log In to leave a comment

After registration we will return you to the same place
Comments
face-with-monocle
If you wait a bit, some comments may appear here...

Shhh...

Most Popular