Loading...
Alkaline Trio logo

This Could Be Love Alkaline Trio

  • 0
  • Share
  • Transposing
    0
  • Font Size
Band: Alkaline Trio
Song: This Could Be Love
Album: Good Mourning
Tab: Guitar
Tabed By: kenny fabritius

hi- ok... see, there are about 3 or four changes in the verses, and a finale that is a littel different
From the refrain. So, i decided to tab out the entire song, just to avoid confusion... really only the verses
And ending had to be tabbed out but still, i thought this would be much easier to understand and much more concise.
Well enjoy... and please rate this tab. if there are any questions contact me @ [email protected]

It doesn't matter to me cuz i know i'm right- but rate thses tabs if u so choose...

Have fun... kenny.

Key:
/=slide
=up stroke
)))=echo or let ring
X=single note muted
P=palm muted
S=quick stop
PC/=pick slide
F=folk strumming
H=hard or heavey strumming

Intro
E-------------------------------------------------------------------------------------------------------------------------------]
A-44xxxxxx-44xxxxxx----------44xxxxxx-44xxxxxx----------44xxxxxx-44xxxxxx----------44xxxxxx-44xxxxxx----------------------------]
D-66xxxxxx-66xxxxxx----------66xxxxxx-66xxxxxx----------66xxxxxx-66xxxxxx----------66xxxxxx-66xxxxxx----------44xxxxxx-44xxxxxx-]
G-66444444-66444444----------66444444-66444444----------66444444-66444444----------66444444-66444444----------66xxxxxx-66xxxxxx-]
B---444444---444444------------444444---444444------------444444---444444------------444444---444444------------444444---444444-]
E---445544---445544------------445544---445544------------445544---445544------------445544---445544------------445544---445544-]

Verse I
E-----------------------P55555555-----P22222222---------------------------P55555555-----P22222222-----x-x-x-x--------P55555555-
A-P4444444444444444-----P77777777-----P44444444-----P4444444444444444-----P77777777-----P44444444-----4-4-4-4-S-----P77777777-
D-P6666666666666666-----P77777777-----P44444444-----P6666666666666666-----P77777777-----P44444444-----6-6-6-6-s-----P77777777-
G-P6666666666666666---------------------------------P6666666666666666---------------------------------6-6-6-6-s---------------
B-----------------------------------------------------------------------------------------------------4-4-4-4-s---------------
E-----------------------------------------------------------------------------------------------------4-4-4-4-s---------------

-----P22222222-----|---------------------------p55555555-----H22222222-----]
-----P44444444-----|-----p4444444444444444-----p77777777-----H44444444-----]
-----P44444444-----|-----p6666666666666666-----p77777777-----H44444444-----]
-------------------|-----p6666666666666666---------------------------------]
-------------------|-------------------------------------------------------]
-------------------|-------------------------------------------------------]

Transition I
E-----------------------------------------------------------------------------------------------------------------]
A-----44xxxxxx-44xxxxxx----------44xxxxxx-44xxxxxx----------44xxxxxx-44xxxxxx----------44xxxxxx-44xxxxxx----------]
D-----66xxxxxx-66xxxxxx----------66xxxxxx-66xxxxxx----------66xxxxxx-66xxxxxx----------66xxxxxx-66xxxxxx----------]
G-----66444444-66444444----------66444444-66444444----------66444444-66444444----------66444444-66444444----------]
B-------444444---444444------------444444---444444------------444444---444444------------444444---444444----------]
E-------445544---445544------------445544---445544------------445544---445544------------445544---445544----------]

Verse II
E-----------------------P55555555-----P22222222---------------------------P55555555-----P22222222-----x-x-x-x-------P55555555-
A-P4444444444444444-----P77777777-----P44444444-----P4444444444444444-----P77777777-----P44444444-----4-4-4-4-s----P77777777-
D-P6666666666666666-----P77777777-----P44444444-----P6666666666666666-----P77777777-----P44444444-----6-6-6-6-s----P77777777-
G-P6666666666666666---------------------------------P6666666666666666---------------------------------6-6-6-6-s--------------
B-----------------------------------------------------------------------------------------------------4-4-4-4-s--------------
E-----------------------------------------------------------------------------------------------------4-4-4-4-s--------------

-----P22222222-----|----------------------------------H2-H2-H2-H2-----]
-----P44444444-----|-----2----------------------------H4-H4-H4-H4-----]
-----P44444444-----|-------6/7-9-7/6-7-6-4-6-2)))-----H4-H4-H4-H4-----]
-------------------|--------------------------------------------------]
-------------------|--------------------------------------------------]
-------------------|--------------------------------------------------]

Refrain I
E-H0000000000000000--------------------------------------------------------------------------------------------------------------
A-H2222222222222222-----H00000000-----H22222222/7777777777777777-----H00000000-----H22222222-----H7777777777777777-----H00000000-
D-H2222222222222222-----H22222222-----H44444444/9999999999999999-----H22222222-----H44444444-----H9999999999999999-----H22222222-
G-----------------------H22222222-----H44444444/9999999999999999-----H22222222-----H44444444-----H9999999999999999-----H22222222-
B--------------------------------------------------------------------------------------------------------------------------------
E--------------------------------------------------------------------------------------------------------------------------------

-----------------------------------------------------------------------------------------]
-----H22222222-----0)))-----P-----2)))-----P-----0)))-----P-----H2222222222222222-----]
-----H44444444-----2)))-----P-----4)))-----P-----2)))-----P-----H4444444444444444-----]
-----H44444444-----2)))-----P-----4)))-----P-----2)))-----P-----H4444444444444444-----]
-----------------------------------------------------------------------------------------]
-----------------------------------------------------------------------------------------]

Transition II
E-----------------------------------------------------------------------------------------------------------------]
A-----44xxxxxx-44xxxxxx----------44xxxxxx-44xxxxxx----------44xxxxxx-44xxxxxx----------44xxxxxx-44xxxxxx----------]
D-----66xxxxxx-66xxxxxx----------66xxxxxx-66xxxxxx----------66xxxxxx-66xxxxxx----------66xxxxxx-66xxxxxx----------]
G-----66444444-66444444----------66444444-66444444----------66444444-66444444----------66444444-66444444----------]
B-------444444---444444------------444444---444444------------444444---444444------------444444---444444----------]
E-------445544---445544------------445544---445544------------445544---445544------------445544---445544----------]

Verse III
E-----------------5)))-----2)))-----------------5)))-----2)))-----x-x-x-x--------P55555555-----P22222222-----
A-----4)))))------7)))-----4)))-----4))))))-----7)))-----4)))-----4-4-4-4-s-----P77777777-----P44444444-----
D-----6)))))------7)))-----4)))-----6))))))-----7)))-----4)))-----6-6-6-6-s-----P77777777-----P44444444-----
G-----6)))))------------------------6))))))-----------------------6-6-6-6-s---------------------------------
B-----------------------------------------------------------------4-4-4-4-s---------------------------------
E-----------------------------------------------------------------4-4-4-4-s---------------------------------

------------------------------------------]
-----2----------------------------PC/-----]
-------6/7-9-7/6-7-6-4-6-2)))-----PC/-----]
----------------------------------PC/-----]
------------------------------------------]
------------------------------------------]

Refrain II
E--H0000000000000000--------------------------------------------------------------------------------------------------------------
A--H2222222222222222-----H00000000-----H222222227777777777777777-----H00000000-----H22222222-----H7777777777777777-----H00000000-
D--H2222222222222222-----H22222222-----H444444449999999999999999-----H22222222-----H44444444-----H9999999999999999-----H22222222-
G------------------------H22222222-----H444444449999999999999999-----H22222222-----H44444444-----H9999999999999999-----H22222222-
B---------------------------------------------------------------------------------------------------------------------------------
E---------------------------------------------------------------------------------------------------------------------------------

-----------------------------------------------------------------------------------]
---H22222222-----0)))-----P-----2)))-----P-----0)))-----P-----H2222222222222222-]
---H44444444-----2)))-----P-----4)))-----P-----2)))-----P-----H4444444444444444-]
---H44444444-----2)))-----P-----4)))-----P-----2)))-----P-----H4444444444444444-]
-----------------------------------------------------------------------------------]
-----------------------------------------------------------------------------------]

Bridge
E---0)------P44444444-P55555555---0)-----P44444444-P55555555----0)-----P44444444-P55555555----0)------P55555555-------------]
A---0)))----P66666666-P77777777---0)))---P66666666-P77777777----0)))---P66666666-P77777777----0)))----P77777777---------PC/-]
D---2)))----P66666666-P77777777---2)))---P66666666-P77777777----2)))---P66666666-P77777777----2)))----P77777777-----PC/-----]
G---4)))--------------------------4)))--------------------------4)))--------------------------4)))--------------------------]
B---4)))--------------------------4)))--------------------------4)))--------------------------4)))--------------------------]
E---0)))--------------------------0)))--------------------------0)))--------------------------0)))--------------------------]

Refrain III / finale
E-H0000000000000000--------------------------------------------------------------------------------------------------------------
A-H2222222222222222-----H00000000-----H222222227777777777777777-----H00000000-----H22222222-----H7777777777777777-----H00000000-
D-H2222222222222222-----H22222222-----H444444449999999999999999-----H22222222-----H44444444-----H9999999999999999-----H22222222-
G-----------------------H22222222-----H444444449999999999999999-----H22222222-----H44444444-----H9999999999999999-----H22222222-
B--------------------------------------------------------------------------------------------------------------------------------
E--------------------------------------------------------------------------------------------------------------------------------

----------------------------------------------------------------------------------------------------------------------------------
-H22222222-----F0000-----P-----F2222-----P-----F0000-----P-----H2222222222222222/H7777777777777777-----H00000000-----H22222222-
-H44444444-----F2222-----P-----F4444-----P-----F2222-----P-----H4444444444444444/H9999999999999999-----H22222222-----H44444444-
-H44444444-----F2222-----P-----F4444-----P-----F2222-----P-----H4444444444444444/H9999999999999999-----H22222222-----H44444444-
----------------------------------------------------------------------------------------------------------------------------------
----------------------------------------------------------------------------------------------------------------------------------

--------------------------------------------------0)))))---]
H7777777777777777-----H00000000-----H22222222-----2)))))---]
H9999999999999999-----H22222222-----H44444444-----2)))))---]
H9999999999999999-----H22222222-----H44444444-----1)))))---]
--------------------------------------------------0)))))---]
--------------------------------------------------0)))))---]

Log In to leave a comment

After registration we will return you to the same place
Comments
face-with-monocle
If you wait a bit, some comments may appear here...

Shhh...