Alkaline Trio logo

Take Lots With Alcohol Alkaline Trio

  • 0
  • Share
  • Font Size
    15
Alkaline Trio – Take Lots With Alcohol
Author/Artist: Alkaline Trio
Title: Take Lots With Alcohol
Album: From Here To Infirmary
Transcribed by: Jim Taone
Email: j_bro124@hotmail.com

Should be very easy and you'll get the rythm if you
Play along with the c.d.
Enjoy, jim

Intro & Verse:
---------------------------------------------------------|
---------------------------------------------------------|
--9-9-9-9-x-x--9-9-9-9-x-x--9-9-9-9---7-7-7-7---9-9-9-9--|
--7-7-7-7-x-x--7-7-7-7-x-x--7-7-7-7---7-7-7-7---9-9-9-9--|
--0-0-0-0-x-x--0-0-0-0-x-x--0-0-0-0---5-5-5-5---7-7-7-7--|
---------------------------------------------------------|

Verse ending:
-------------------------------------------------------------|
-------------------------------------------------------------|
--6-6-6-6-6---------------9-9-9--9-9-9-9---7-7-7-7---9-9-9-9-|
--6-6-6-6-6---6-6-6-6-6---x-x-x--x-x-x-x---7-7-7-7---9-9-9-9-|
--4-4-4-4-4---6-6-6-6-6---7-7-7--7-7-7-7---5-5-5-5---7-7-7-7-|
--------------4-4-4-4-4--------------------------------------|

Pre-chorus:
------------------------------------------|
------------------------------------------|
------------9-9-9-9---7-7-7-7---9-9-9-9---|
--7-7-7-7---9-9-9-9---7-7-7-7---9-9-9-9---|
--7-7-7-7---7-7-7-7---5-5-5-5---7-7-7-7---|
--5-5-5-5---------------------------------|

Outro:
---------------------------------------------------------|
---------------------------------------------------------|
---------------------------------------------------------|
---------------------------------------------------------|
-----------7-7-7-7--------------------4-4-4-4--2-2-------|
--5-5-5-5-----------2-2-2-2--0-0-0-0---------------------|

Outro Lead:
----------------------|
----------------------|
--9----76------------|
--x----xx------------|
--7----54------------|
----------------------|

Questions, comments, corrections... e-mail me at j_bro124@hotmail.com

Songflow:
Intro 2x
Verse 4x
Verse ending
Verse 4x
Verse ending
Pre-chorus
Chorus 4x
Intro 2x
Verse 4x
Verse ending
Pre-chorus
Chorus 4x
Outro 4x
Outro Lead 7x

Questions, comments, corrections... e-mail me at j_bro124@hotmail.com

Log In to leave a comment

After registration we will return you to the same place
Comments
face-with-monocle
If you wait a bit, some comments may appear here...

Shhh...