Loading...
Alkaline Trio logo

Nose Over Tail Alkaline Trio

  • 0
  • Share
  • Transposing
    0
  • Font Size
Band: Alkaline Trio
Song: Nose Over Tail
Album: The Alkaline Trio/Goddamnit (It's on both)
Tabbed By: BannY a.k.a - Tsunami Bomb

Ok this is one of trio's older songs, but if anyone who has good taste
In music will appreciate this tab. Thanks for at least looking at this...Later

G:------------------------------------4-4-:
D:-------------------------------2222--2-2:
A:-2222-2222-----------2222-2222----------:
E:-----------0000-0000--------------------:

G:------------------------------------------:
D:------------------------------------------:
A:-4444-4444-4444-4466-7777-7777------------:
E:-------------------------------55-55-55-55:

G:---------------------------------------:
D:---------------------------6-----------:
A:-----------2222-2222-4-44-6-6----------:
E:-0000-0000--------------------5555-5754:

G:--------------------:--------------------
D:--------------------:--------------------
A:-----------2222 2222:--------------------
E:-0000-0000----------:-5555-5555-2222-2222

P.S - Alkaline Trio fucking rock!
(I'm nose over tail for you)

Log In to leave a comment

After registration we will return you to the same place
Comments
face-with-monocle
If you wait a bit, some comments may appear here...

Shhh...