Alkaline Trio logo

Fuck You Aurora Alkaline Trio

  • 0
  • Share
  • Transposing
    0
  • Font Size
Alkaline Trio – Fuck You Aurora
FUCK YOU AURORA - Alkaline Trio

By: Jason Aarts-bassist from Until It Falls

> Strum

Intro:
Slide down to the three on the E string. And then:
G|---------------------------------------------------------------------
D|---------------------------------------------------------------------
A|---------0-2>---3>---------2>-3>-------------------------------------
E|-3>--------------------3>--------------------------------------------

Verse:
G|---------------------------------------------------------------------
D|------55---------------7799------------------------------------------
A|----------------00-0-------------22-2222-33-3333---------------------
E|--33-3--33-----------------------------------------------------------

Pre Chorus:
G|---------------------------------------------------------------------
D|---------------------------------------------------------------------
A|---5>-------3>-------------------------------------------------------
E|---------------------------------------------------------------------

Chorus:
G|---------------------------------------------------------------------
D|---------------------------------------------------------------------
A|-----------3>------5>---------3>-------------------------------------
E|-----3>--------------------------------------------------------------

Bit after chorus:
G|---------------------------------------------------------------------
D|---------------------------------------------------------------------
A|-----5>-----3>-------------------------------------------------------
E|---------------------------------------------------------------------

I'm pretty sure this is right. Just listen to the song for the timing. It's
A good tune so keep rocking baby.

Log In to leave a comment

After registration we will return you to the same place
Comments
face-with-monocle
If you wait a bit, some comments may appear here...

Shhh...