Loading...
  • 0
  • Share
  • Font Size
Alien Ant Farm – Movies
Title: Movies
Artist: Alien Ant Farm
Tabbed by: Max McNeilly

*=Repeat
^=Palm Mute

Intro

E-------------------------------------|
B-------------------------------------|
G---9*^*^*^*^*^*^*^*^*^*^*^*^*^*^*----|
D---9*^*^*^*^*^*^*^*^*^*^*^*^*^*^*----|
A---7*^*^*^*^*^*^*^*^*^*^*^*^*^*^*----|
E-------------------------------------|

E-------------------------------------|
B-------------------------------------|
G-------------------------------------|
D---7-6---------7-6-------------------|
A---7-7-7-7-7-7-7-7-7-7-7-7-----------|
E-------------------------------------|

Vs

E-------------------------------------|
B-------------------------------------|
G---9***************------------------|
D---9***************------------------|
A---7***************------------------|
E-------------------------------------|

E-------------------------------------|
B-------------------------------------|
G-------------------------------------|
D---7-6---------7-6-------------------|
A---7-7-7-7-7-7-7-7-7-7-7-7-9-9-9-9---|
E-------------------------------------|

Ch 1

E------------------------------------------------|
B------------------------------------------------|
G---9***************-----------------------------|
D---9***************-----------------------------|
A---7***************-11-11-11-11-9-9-9-9-7-7-7-7-|
E------------------------------------------------|

Ch 2

E------------------------------------------------|
B------------------------------------------------|
G------------------------------------------------|
D--7-7-7-7-6-4-4-7-10-2-2-2-2--------------------|
A--7-7-7-7-6-4-4-7-10-2-2-2-2--------------------|
E--5-5-5-5-4-2-2-5--8-0-0-0-0-9-9-9-9------------|

End.

Log In to leave a comment

After registration we will return you to the same place
Comments
face-with-monocle
If you wait a bit, some comments may appear here...

Shhh...

Most Popular
You Might Like