Loading...
Alien Ant Farm logo

Denigrate Alien Ant Farm

  • 0
  • Share
  • Transposing
    0
  • Font Size
Band: alien ant farm
Song: denigrate (non lp version)
Album: (non lp:smooth criminal single, lp ver:greatest hits cd)
Tabbed by: kommon ([email protected])

Intro
E--------------------------------------------------------------------|
B--------------------------------------------------------------------|
G--------------------------------------------------------------------|
D-4-x-4-x-4-3-3---3-x-3-x-3-2-2---2-x-2-x-2-1-1----------------------|
A-4-x-4-x-4-3-3---3-x-3-x-3-2-2---2-x-2-x-2-1-1----------------------|
E-4-x-4-x-4-3-3---3-x-3-x-3-2-2---2-x-2-x-2-1-1--2-4-5---------------|

E--------------------------------------------------------------------|
B--------------------------------------------------------------------|
G--------------------------------------------------------------------|
D-4-x-4-x-4-3-3---3-x-3-x-3-2-2---2-x-2-x-2-1-1----------------------|
A-4-x-4-x-4-3-3---3-x-3-x-3-2-2---2-x-2-x-2-1-1----------------------|
E-4-x-4-x-4-3-3---3-x-3-x-3-2-2---2-x-2-x-2-1-1--2-4-5-4-5-----------|
Repeat 2nd part of intro x1

Verse 1
E---------------------------------------------------------------------|
B---------------------------------------------------------------------|
G-2-2--4-3-2--4-3-2---4-3-2---(4-3-2-3-3-2-1-2-5-5)-------------------|
D---------------------------------------------------------------------|
A---------------------------------------------------------------------|
E---------------------------------------------------------------------|
bared part x2

Play intro

bar 1
E---------------------------------------------------------------------|
B---------------------------------------------------------------------|
G-4-3-2-3-3-2-1-2-5-5---4-3-2-3-3-2-1-2-5-5---------------------------|
D---------------------------------------------------------------------|
A---------------------------------------------------------------------|
E---------------------------------------------------------------------|

Play verse 1
Play intro

bar 2
E-----------------------------------------------------------------------|
B-----------------------------------------------------------------------|
G-----------------------------------------------------------------------|
D--3-3-3-1--3-3-3-4-----------------------------------------------------|
A--3-3-3-1--3-3-3-4-----------------------------------------------------|
E--3-3-3-1--3-3-3-4-----------------------------------------------------|
x 2
Verse 3
E---------------------------------------------------------------------|
B---------------------------------------------------------------------|
G-2-2-2-2-4-2-2-2-2-1-------------------------------------------------|
D-2-2-2-2-4-2-2-2-2-1-------------------------------------------------|
A-2-2-2-2-4-2-2-2-2-1-------------------------------------------------|
E---------------------------------------------------------------------|
x 2

Play bar
Play verse x 2
Play intro

outro
E---------------------------------------------------------------------|
B---------------------------------------------------------------------|
G---------------------------------------------------------------------|
D-4-3-2-3-3-2-1-2-5-5---4-3-2-3-3-2-1-2-5-5---------------------------|
A---------------------------------------------------------------------|
E---------------------------------------------------------------------|
Then play that on the g string

Log In to leave a comment

After registration we will return you to the same place
Comments
face-with-monocle
If you wait a bit, some comments may appear here...

Shhh...

Most Popular
You Might Like