• 0
  • Share
  • Transposing
    0
  • Font Size
Alicia Keys – Karma
Album: The Diary of Alicia Keys
Tabbed by: qweyet Gi

This is a guitar interpretation; not intended to completely follow the
Recording. However, I felt the other tab was in the wrong key and
Also written for a bass guitar. This makes it more fun to play than
Just one note.
Leave your criticisms.

D5 E5 F5
E---x----x----x----|
B---x----x----x----|
G---7----9----10---|
D---7----9----10---|
A---5----7----8----|
E---x----x----x----|

D5 E5 F5
E----------------------------------------------|
B------5-6------6-8-------8--10---8--6--5------|
G---7--------9--------10-----------------------|
D---7--------9--------10-----------------------|
A---5--------7--------8------------------------|
E----------------------------------------------|

Log In to leave a comment

After registration we will return you to the same place
Comments
face-with-monocle
If you wait a bit, some comments may appear here...

Shhh...