Агата Кристи logo

Как на войне Агата Кристи

  • 12
  • Share
  • Transposing
    0
  • Font Size
Агата Кристи – Как на войне
Intro:
Am G C E Am G C E
E|-0----0---3-----3-1-0--------0--------0----0---3---3-1-0-------0-4-5-|
B|-1------1-0---------1--3-1-3-0--0-1-0-1------1-0-------1-3-1-3-0-----|
G|-2--2-----0---0-----0--------1--------2--2-----0-0-----0-------1-----|
D|-2--------0---------2--------2--------2--------0-------2-------2-----|
A|-0--------2---------3--------2--------0--------2-------3-------2-----|
E|-0--------3---------0--------0--------0--------3-------0-------0-----|

Бас:
Am G C E
D|--------------------------------------------2-----2-------|
A|------------------------------3-0-2-3-0-3-5---3-5---5-3-2-|
E|--5-0-3-5-0-5-4-3-0-2-3-0-2-3-----------------------------|

Am G C E }x2 ↓ ↓↑ ↑↓↑
Вниз--вниз с приглушением-вверх--вверх-вниз с приглушением-вверх

Am G C E Am
Ляг, отдохни и послушай что я скажу
G C E Am
Я терпел, но сегодня я ухожу
Am G C E Am
Я сказал: "Успокойся и рот закрой"
G C E Am
Вот и все до свидания черт с тобой

Припев:
Am G C
Я на тебе как на войне
E Am
А на войне, как на тебе,
Am G C
Но я устал, окончен бой
E Am
Беру портвейн иду домой
Am G C
Окончен бой, зачах огонь
E Am
И не осталось ничего
Am G C
А мы живем, а нам с тобою
E Am
Повезло назло

Проигрыш:
E|---0------3-1-0---------------------0-------3-1-0-------0-4-5-|
H|----1-0---------3-1-3-0--0-1-0--------1-0---------3-1-3-------|
G|-2------0----------------------2----------0-------------------|
D|----------------------------------2---------------------------|

↓ ↓↑ ↑↓↑

Вниз--вниз с приглушением-вверх--вверх-вниз с приглушением-вверх

Am G C E Am
Боль, это боль как ее ты не назови
G C E Am
Это страх, там где страх место нет любви
Am G C E Am
Я сказал: "Успокойся и рот закрой"
G C E Am
Вот и все до свидания черт с тобой

Припев:
Am G C
Я на тебе как на войне
E Am
А на войне, как на тебе,
Am G C
Но я устал, окончен бой
E Am
Беру портвейн иду домой
Am G C
Окончен бой, зачах огонь
E Am
И не осталось ничего
Am G C
А мы живем, а нам с тобою
E Am
Повезло назло

Проигрыш: Am G C E }x2 ↓ ↓↑ ↑↓↑

G|----------0---------------------------------0-------------1-2|
D|---2--------3-2--0---0---------------2--------3-2--0--0-2----|
A|-0---3-2-----------3---2--2-3-2-0------3-2-----------3-------|
E|---------3--------------------------0------3-----------------|

Log In to leave a comment

After registration we will return you to the same place
Comments
face-with-monocle
If you wait a bit, some comments may appear here...

Shhh...