Loading...
Агата Кристи logo

Днем и ночью Агата Кристи

  • 0
  • Share
  • Transposing
    0
  • Font Size
Intro:
Dm D7 A# D5+/sus4 Dm A
|----10-------------10--------------13-10-------------------------
|--10--10---------10--10----------10-----10-9-----9/13~12~11~10~~-
|--------10-9-----------10-11-------------------------------------
|-----------------------------------------------------------------
|-----------------------------------------------------------------
|-----------------------------------------------------------------

Dm D7 A# D5+/sus4 Dm A
|----10-------------10--------------13-10-------------------------
|--10--10---------10--10----------10-----10-9-----9/13~12~11~10~~-
|--------10-9-----------10-11-------------------------------------
|-----------------------------------------------------------------
|-----------------------------------------------------------------
|-----------------------------------------------------------------

Dm
Надо еще
Dm
Надо чуть-чуть
Dm
Надо найти
Dm
Правильный путь
Dm
День кусает ночь
Dm
Ночь сосет меня
Dm
Вот она моя
Dm
Борьба

Dm
Днем и ночью днем и ночью
|-10-----------10-----------
|----10-----------10--------
|-------10-----------10-----
|----------12-----------12--
|---------------------------
|---------------------------

D7
Не могу реально кончить
|-8--------8--------
|---7--------7------
|-----7--------7----
|-------7--------7--
|-------------------
|-------------------

A# D5+/sus4 Dm A
Ты хитра, но я не расколюсь
|-6---------6------------10------------------9--
|---8---------8-------------10------------10----
|-----7---------7--------------10-------9-------
|-------5---------8---------------12--7---------
|-----------------------------------------------
|-----------------------------------------------

Dm
Только нет, не этой ночью
|-10-----------10-----------
|----10-----------10--------
|-------10-----------10-----
|----------12-----------12--
|---------------------------
|---------------------------

D7
Все, хорош, короче
|-8-----------8--------
|---7-----------7------
|-----7-----------7----
|-------7-----------7--
|----------------------
|----------------------

A# D5+/sus4
Я пойду и застрелюсь. Ты хочешь
|--6-------------------------------|
|----8-----------------------------|
|------7---------------------------|
|--------8-5-----------------------|
|----------------------------------|
|----------------------------------|

Dm
Надо поспать
Dm
Надо уснуть
Dm
Надо найти
Dm
Правильный путь
Dm
Где поднажать
Dm
Что повернуть
Dm
Надо найти
Dm
Правильный путь

Проигрыш: Dm D7 A# D5+/sus4 Dm A

Dm D7 A# D5+/sus4 Dm A
|------------------------------------------------------------------------------|
|------------------------------------------------------------------------------|
|--/10~9~7~~7/10~9~7~~7/11~8~5~~5/11~~5~~5/12~~3~~3/10~~3~~3/10~9~7~~76/8/9/10-|
|------------------------------------------------------------------------------|
|------------------------------------------------------------------------------|
|------------------------------------------------------------------------------|

Dm
Днем и ночью днем и ночью
|-10-----------10-----------
|----10-----------10--------
|-------10-----------10-----
|----------12-----------12--
|---------------------------
|---------------------------

D7
Не могу реально кончить
|-8--------8--------
|---7--------7------
|-----7--------7----
|-------7--------7--
|-------------------
|-------------------

A# D5+/sus4 Dm A
Ты хитра, но я не расколюсь
|-6---------6------------10------------------9--
|---8---------8-------------10------------10----
|-----7---------7--------------10-------9-------
|-------5---------8---------------12--7---------
|-----------------------------------------------
|-----------------------------------------------

Dm
Только нет, не этой ночью
|-10-----------10-----------
|----10-----------10--------
|-------10-----------10-----
|----------12-----------12--
|---------------------------
|---------------------------

D7
Все, хорош, короче
|-8--------8--------
|---7--------7------
|-----7--------7----
|-------7--------7--
|-------------------
|-------------------

A# D5+/sus4
Я пойду и застрелюсь, ты кончишь
|-6---------6----------------------
|---8---------8--------------------
|-----7---------7------------------
|-------5---------8----------------
|----------------------------------
|----------------------------------

Dm
Днем и ночью днем и ночью
|-10-----------10-----------
|----10-----------10--------
|-------10-----------10-----
|----------12-----------12--
|---------------------------
|---------------------------

D7
Не могу конкретно кончить
|-8--------8--------
|---7--------7------
|-----7--------7----
|-------7--------7--
|-------------------
|-------------------

A# D5+/sus4 Dm A
Ты хитра, но я не расколюсь
|-6---------6------------10------------------9--
|---8---------8-------------10------------10----
|-----7---------7--------------10-------9-------
|-------5---------8---------------12--7---------
|-----------------------------------------------
|-----------------------------------------------

Dm
Только нет, не этой ночью
|-10-----------10-----------
|----10-----------10--------
|-------10-----------10-----
|----------12-----------12--
|---------------------------
|---------------------------

D7
Все, хорош, короче
|-8----8------------8--
|-7----7--------7------
|-7----7----------7----
|-------------7--------
|----------------------
|----------------------

A# D5+/sus4
Я пойду и застрелюсь. Ты кончишь
|--6-------------------------------|
|----8-----------------------------|
|------7---------------------------|
|--------8-5-----------------------|
|----------------------------------|
|----------------------------------|

Dm D7 A# D5+/sus4 Dm A
|----10-------------10--------------13-10---------------------------
|--10--10---------10--10----------10-----10-9-----9/13~12~11~10~~--
|--------10-9-----------10-11---------------------------------------
|-------------------------------------------------------------------
|-------------------------------------------------------------------
|-------------------------------------------------------------------

Dm D7 A# D5+/sus4 Dm
|----10-------------10--------------13-10-----------13~-12~-11~-10__|
|--10--10---------10--10----------10-----10-9-----9/13~-12~-11~ 10__|
|--------10-9-----------10-11-----------------------13~-12~-11~-10__|
|---------------------------------------------------------------12__|
|---------------------------------------------------------------12__|
|-------------------------------------------------------------------|

Log In to leave a comment

After registration we will return you to the same place
Comments
face-with-monocle
If you wait a bit, some comments may appear here...

Shhh...