Loading...
Aerosmith logo

Round And Round Aerosmith

  • 0
  • Share
  • Transposing
    0
  • Font Size
INTRO
E|----------------------------------------|
B|---------------------------------5------|
G|---------------------------555577-7-----|
D|5555-5555-77777777-88888888-------------|

MAIN RIFF
E|---------------|
B|---------------|
G|----7-----775\\%|
D|3-0---000------|

INTERLUDE
E|o-0-9-5-4-5-6-7-------------------o|
B|-----------------------------------|
G|-------------------5------7-775----|
D|o--------------75-7-7-3-0---------o|

Log In to leave a comment

After registration we will return you to the same place
Comments
face-with-monocle
If you wait a bit, some comments may appear here...

Shhh...