Loading...
Adams Bryan logo

Run To You Adams Bryan

  • 0
  • Share
  • Transposing
    0
  • Font Size
Intro:

E-----------------|-----------------||
B-----------------|-----------------||
D-----------------|-----------------||
G-----0-----0-----|-----0-----0-----||
A---2-----2---2---|---2-----4---4---||
E-0-----0-------0-|-3-----5-------5-||

Chords used:

EM G D A C (litlle bit different, check out)
0 3 2 0 0
0 3 3 2 3
0 0 2 2 0
2 0 0 2 2
2 2 0 0 3
0 3 0 0 0

CHORUS- EM - G - D - A

SOLO:

Here "~" means tremolo, forget CAPO here, just played how they are.
Repeat twice (2x).

||--------------|-----------|-------------|--------------|
||11/12-11------|-9/10-9----|-7/8-7-------|-9/10-9-------|
||--------11----|-------9---|------7------|-------9------|
||----------11~-|--------9~-|-------7~----|--------9~----|
||--------------|-----------|-------------|--------------|
||--------------|-----------|-------------|--------------|

-------------------------------------------------------------------

INTRO (repeat trough the verses)

She says her love for me could never die
But that'd change if she ever found out about you and I
Oh - but her love is cold
It wouldn't hurt her if she didn't know, 'cause...

Pre chorus
----------------------------------------------------------------

C (special, check out up)
When it gets too much
D
I need to feel your touch

-----------------------------------------------------------------

CHORUS
-----------------------------------------------------------------

EM G D A
I'm gonna run to you
EM G D A
I'm gonna run to you
EM G D A
Cause when the feelin's right I'm gonna run all night
EM G D A
I'm gonna run to you

------------------------------------------------------------------

INTRO (repeat trough the verses)

She's got a heart of gold she'd never let me down
But you're the one that always turns me on
You keep me comin' 'round
I know her love is true
But it's so easy makin' love to you

Pre chorus
----------------------------------------------------------------

C (special, check out up)
I got my mind made up
D
I need to feel your touch

----------------------------------------------------------------

CHORUS
-----------------------------------------------------------------

EM G D A
I'm gonna run to you
EM G D A
I'm gonna run to you
EM G D A
Cause when the feelin's right I'm gonna run all night
EM G D A
I'm gonna run to you

Log In to leave a comment

After registration we will return you to the same place
Comments
face-with-monocle
If you wait a bit, some comments may appear here...

Shhh...