Adams Bryan logo

I Think About You Adams Bryan

  • 0
  • Share
  • Transposing
    0
  • Font Size
Adams Bryan – I Think About You
Intro:

G C G (play 2 bars of G prior to first verse)
E|----------------------3-|
B|----------------------3-|
G|-/4-2-0h2-------------0-|
D|----------2---2-0-----0-|
A|------------------2-0-2-|
E|----------------------3-|

Verse 1:

G C D G
I oughta' be workin' but I can't concentrate.
G C D G
I oughta' be sleepin' steada' stayin' up late.
G C D Em C(add9)
When I oughta' be doin' all things I should do, I think about you.
G C D G
I oughta' be writin' but I can't find a song.
G C D G
Just sittin' here driftin' driftin' along.
G C D Em C(add9)
There's only one thing that I wanna' do, and that's think about you.

Chorus:
D G C(add9)
I think about you, I can't get no rest.
D G C(add9)
I think about you, there ain't no one else.
Em C(add9)
It's all I can do, I can't help myself, yeah, I think about you

(intro)

Verse 2:

G C D G
I could go cruisin' but I've had enough.
G C D G
I could go drinkin' but I can't stand the stuff.
G C D Em C(add9)
It just don't do me like it used to do, I'd rather think about you.

Chorus:
D G C(add9)
I think about you, I can't get no rest.
D G C(add9)
I think about you, there ain't no one else.
D G C(add9)
It's all I can do, I can't help myself, yeah, I think about you

Solo: G C D G G C D G
E|-------------------------|--------------------------|
B|-------------------------|--------------------------|
G|-------------------------|--------------------------|
D|-----0-0h2---------------|-----0-0h2----------------|
A|--0h2-----0h2p0--0-0h2-2-|--0h2-----0h2p0--0-0h2p0--|
E|-3-------------3---------|-3-------------3--------3-|

Chorus:

D G C(add9)
I think about you, I can't get no rest.
D G C(add9)
I think about you, there ain't no one else.
D G C(add9)
It's all I can do, I can't help myself, yeah, I think about you.
D G C(add9)
I think about you, I can't get no rest.
D G C(add9)
I think about you, there ain't no one else.
D G C(add9)
It's all I can do, I can't help myself, yeah, I think about you.

(intro)

Log In to leave a comment

After registration we will return you to the same place
Comments
face-with-monocle
If you wait a bit, some comments may appear here...

Shhh...