Loading...
ABBA logo

Sos ABBA

  • 12
  • Share
  • Transposing
    0
  • Font Size
Intro: (piano arranged for guitar)
E-------------------------------------------------|
B--10-10--8-8--6---6-6--5-5--3---3-3--1-1---------|
G--10-10--9-9--7---7-7--5-5--3---3-3--2-2--3-3--2-| x2
D------------------------------------------5-5--0-|
A-------------------------------------------------|
E-------------------------------------------------|

(guitar)
E-----1-------1-----------|
B-------------------------|
G--2-----2/3----3/2-------|
D-------------------------|
A-------------------------|
E-------------------------|

Verse 1:
Dm A7 Dm
Where are those happy times - they seem so hard to find.
Dm A7 Dm
I try to reach for you but you have closed your mind.
F C
Whatever happened to our love?
Gm Dm
I wish I understood.
Dm A7 Dm
It used to be so nice, it used to be so good.

Chorus:
F C Gm A# F Fsus4 F Fsus4
So when you're near me, darling can't you hear me, SOS
F C Gm A# F Fsus4 F Fsus4
The love you gave me, nothing less can save me, SOS
A# C# D# F
When you're gone, how can I even try to go on?
A# C# D# F
When you're gone, though I try how can I carry on?

Verse 2:
Dm A7 Dm
You seem so far away though you are standing near.
Dm A7 Dm
You make me feel alive but something died, I fear.
F C
I really tried to make it up -
Gm Dm
I wish I understood.
Dm A7 Dm
What happened to our love, it used to be so good.

Chorus:
F C Gm A# F Fsus4 F Fsus4
So when you're near me, darling can't you hear me, SOS
F C Gm A# F Fsus4 F Fsus4
The love you gave me, nothing less can save me, SOS
A# C# D# F
When you're gone, how can I even try to go on?
A# C# D# F
When you're gone, though I try how can I carry on?

Log In to leave a comment

After registration we will return you to the same place
Comments
face-with-monocle
If you wait a bit, some comments may appear here...

Shhh...