A Perfect Circle logo

The Outsider A Perfect Circle

  • 0
  • Share
  • Transposing
    0
  • Font Size
A Perfect Circle – The Outsider

TBE oUTSIDer - A perfect Circle

Tabbed by: Alex R

Tuning: C# F# B E G# C# (Frequently used by Billy Bowerdel)

X's under the tab mean notes directly above them are palm muted.

Intro/Chorus 1
C#|-------------------------------------------------|
G#|-------------------------------------------------|
E |-----9---9-------9---9-------9---9-------9-------|
B |-------9-----------9-----------9-----------9-----|
F#|-7-----------7-----------7-----------7---------0-|
C#|-------------------------------------------------|

C#|--------------------------------------------------|
G#|--------------------------------------------------|
E |-----9---9-------9---9-------9---9----------------|
B |-------7-----------7---0-------7------------------|
F#|-5-----------5-----------------------------10--p9-|
C#|-------------------------8-----------8------------|

C#|----------------------------------------------------|
G#|----------------------------------------------------|
E |-----9---9-------9---9-------9---9---10p9---7h9p7---|
B |-------9-----------9-----------9---9------9-------7-|
F#|-7-----------7-----------7--------------------------|
C#|----------------------------------------------------|

C#|---------------------------------------------|
G#|---------------------------------------------|
E |-----9---9-------9---9---------6-----------9-|
B |-------7-----------7---------------7---------|
F#|-5-----------5-------------------------------|
C#|-------------------------3/5---------5/8-----|

Verse 1
C#|-0--------------------------0-|
G#|--0-------------------------0-|
E |---0--------------------4---4-|
B |----4-------------------2-----|
F#|-----2------------------2-----|
C#|------0-----------------------|

Guitar 2- Comes after last chord above
C#|------------------------------------------------------------------------------|
G#|------------------------------------------------------------------------------|
E |-16-----16-----16-----16-----16---16/19-19----16-----1716---14-----16/1716-|
B |------------------------------------------------------------------------------|
F#|-14-----14-----14-----14-----14---14/17-17----14-----1514---12-----14/1514-|
C#|------------------------------------------------------------------------------|

Pre-chorus
C#|-----------------------| C#|-------------------------|
G#|-----------------------| G#|-------------------------|
E |-----------------------| E |-------------------------|
B |-----------------------| x3 B |-------------------------| Repeat all
F#|-------------7---7-7-7-| F#|-------------3-----------|
C#|-0h3h5-0h3h5-----------| C#|-0h3h5-0h3h5-----0-0-3p2-|
x x x x

Guitar 2 (played during pre-chorus)
C#|-----------------------------------------------------------------|
G#|-----------------------------------------------------------------|
E |-16---16-16-16-16-16---16-16-16---14---14-14-14-14-14---14-14-14-|
B |-----------------------------------------------------------------|
F#|-14---14-14-14-14-14---14-14-14---12---12-12-12-12-12---12-12-12-|
C#|-----------------------------------------------------------------|

C#|-----------------------------------------------------------------|
G#|-----------------------------------------------------------------|
E |-16---16-16-16-16-16---16-16-16---17---17-17-17-17-17---19-19-19-|
B |-----------------------------------------------------------------|
F#|-14---14-14-14-14-14---14-14-14---15---15-15-15-15-15---17-17-17-|
C#|-----------------------------------------------------------------|

C#|-----------------------------------------------------------------|
G#|-----------------------------------------------------------------|
E |-16---16-16-16-16-16---16-16-16---14---14-14-14-14-14---14-14-14-|
B |-----------------------------------------------------------------|
F#|-14---14-14-14-14-14---14-14-14---12---12-12-12-12-12---12-12-12-|
C#|-----------------------------------------------------------------|

C#|-----------------------------------------------------------------|
G#|-----------------------------------------------------------------|
E |-12---12-12-12-12-12---12-12-12---11---11-11-11-11-11---11-11-11-|
B |-----------------------------------------------------------------|
F#|-10---10-10-10-10-10---10-10-10---9----9--9--9--9--9----9--9--9--|
C#|-----------------------------------------------------------------|

Bridge between chorus and 2nd verse
C#|-0------------------------------------------------|
G#|-0------------------------------------------------|
E |-4------------------------------------------------|
B |-2------------------------------------------------|
F#|-2------------------------------------------------|
C#|-0------------------------------------------------|

Guitar 2
C#|--------------------------------------------------|
G#|--------------------------------------------------|
E |-16----------------/19-----19--16------------/19-|
B |--------------------------------------------------|
F#|-14----------------/17-----17--14------------/17-|
C#|--------------------------------------------------|

C#|--------------------------------------------------|
G#|--------------------------------------------------|
E |-19--16-----------/19-----19--16-------17--16--|
B |--------------------------------------------------|
F#|-17--14-----------/17-----17--14-------15--14--|
C#|--------------------------------------------------|

Verse 2
C#|-------------------------------| C#|-------------------------------|
G#|-------------------------------| G#|-------------------------------|
E |-------------------------------| E |-------------------------------|
B |-------------------------------| x3 B |-------------------------------|
F#|-2-2---2-2---2-2---2-2---3---3-| F#|-5-----2-----3-----5-----3---3-|
C#|-0-0---0-0---0-0---0-0---1---0-| C#|-3-----0-----1-----4-----1---0-|
x x x x x x x x x x

C#|-------------------------------| C#|-------------------------------|
G#|-------------------------------| G#|-------------------------------|
E |-------------------------------| E |-------------------------------|
B |-------------------------------| x3 B |-------------------------7~~~~~|
F#|-2-2---2-2---2-2---2-2---3---3-| F#|-5-----2-----3-----------------|
C#|-0-0---0-0---0-0---0-0---1---0-| C#|-3-----0-----1-----4~~~~~5~~~~~|
x x x x x x x x x

Chorus 2
C#|-----------------------------------------------|
G#|-----------------------------------------------|
E |-9---9---9-----9---9-9---9---9---9-----9---9-9-|
B |-9---9---9-----9---9-9---9---9---9-----9---9-9-|
F#|-7---7---7-----7---7-7---7---7---7-----7---7-7-|
C#|-----------------------------------------------|

C#|---------------------------------------------------|
G#|---------------------------------------------------|
E |-7---7---7-----7---7-7---5---5---5-----5----/1211-|
B |-7---7---7-----7---7-7---5---5---5-----5----/1211-|
F#|-5---5---5-----5---5-5---3---3---3-----3----/109--|
C#|---------------------------------------------------|

C#|------------------------------------------------|
G#|------------------------------------------------|
E |-9---9---9-----7---9-9---7/9-9---9-----12---9-9-|
B |-9---9---9-----7---9-9---7/9-9---9-----12---9-9-|
F#|-7---7---7-----5---7-7---5/7-7---7-----10---7-7-|
C#|------------------------------------------------|

C#|------------------------------------------------------|
G#|------------------------------------------------------|
E |-7---7---7----/14-------------------------------------|
B |-7---7---7----/14---------x-7---7-----x-10---10-----2-|
F#|-5---5---5----/12---------x-7---7-----x-10---10-----2-|
C#|--------------------------x-5---5-----x-8----8------0-|

Bridge
C#|-------------------------------------------------------|
G#|-------------------------------------------------------|
E |-------------------------------------------------------|
B |-------------------------------------------------------|
F#|-2-------11----11----11------8---7-----7-----7-------7-|
C#|-0-------0---0---0---0---0-0-0---0---0---0---0---0-0-0-|

C#|-----------------------------------------------|
G#|-----------------------------------------------|
E |-----------------------------------------------|
B |-----0-------0---------------------------------|
F#|---------------------8---7-----7-----7-----7---|
C#|-7-------7-------0-0-0---0---0---0---0---0---0-|

C#|-----------------------------------------------|
G#|-----------------------------------------------|
E |-----------------------------------------------|
B |-----------------------------------------------|
F#|-11----11----11----12----14----14----14----14--|
C#|-0---0---0---0---0---0---0---0---0---0---0---0-|

C#|------------------------------------------|
G#|------------------------------------------|
E |------------------------------------------|
B |------------------------------------------|
F#|-12----12----12------11h12-11----11----11-|
C#|-0---0---0---0---0-0-0-----0---0---0---0--|

C#|-----------------------------------------------|
G#|-----------------------------------------------|
E |-13----13----13------10--9-----9-----9-------9-|
B |-----------------------------------------------|
F#|-11----11----11------8---7-----7-----7-------7-|
C#|-0---0---0---0---0-0-0---0---0---0---0---0-0-0-|

C#|-----------------------------------------------|
G#|-----------------------------------------------|
E |---------------------10--9-----9-----9-----9---|
B |-----0-------0---------------------------------|
F#|---------------------8---7-----7-----7-----7---|
C#|-7-------7-------0-0-0---0---0---0---0---0---0-|

C#|-----------------------------------------------|
G#|-----------------------------------------------|
E |-13----13----13----14----16----16----16----16--|
B |-----------------------------------------------|
F#|-11----11----11----12----14----14----14----14--|
C#|-0---0---0---0---0---0---0---0---0---0---0---0-|

C#|-----------------------------------------------------|
G#|-----------------------------------------------------|
E |-16/19-19---16---19-------22--21---21-21--21---21-21-|
B |-----------------------------------------------------|
F#|-14/17-17---14---17-------20--19---19-19--19---19-19-|
C#|-0-----0----0----0----0-0-0---0---0---0---0---0---0--|

Pre-chorus 3
C#|-----------------------| C#|-------------------------|
G#|-----------------------| G#|-------------------------|
E |-----------------------| E |-------------------------|
B |------------/9-------9-| x3 B |-------------------------| Repeat all
F#|-2h5/5-2h5--/7---7-7-7-| F#|-2h5/5-2h5/7-2-------54-|
C#|-0h3/5-0h3-------------| C#|-0h3/5-0h3/5-0---0-0-32-|
x x x x

Jam before last chorus
C#|---------------------------------------------------|
G#|---------------------------------------------------|
E |---------------------------------------------------|
B |-9---9-9-9---9-12---9-9---7/9-9-9-9-9-9/109-9-9-9-|
F#|-7---7-7-7---7-10---7-7---5/7-7-7-7-7-7/8-7-7-7-7-|
C#|---------------------------------------------------|
x x x x x x x x x

C#|--------------------------------------------------------|
G#|--------------------------------------------------------|
E |---------------7----------------------------------------|
B |-7---7-7-7-----7---7-7---12---12-12---12-12/14-14-14-14-|
F#|-5---5-5-5---5-----5-5---10---10-10---10-10/12-12-12-12-|
C#|--------------------------------------------------------|
x x x x

C#|---------------------------------------------------|
G#|---------------------------------------------------|
E |---------------------------------------------------|
B |-9---9-9-9---9-12---9-9---7/9-9-9-9-9-9/109-9-9-9-|
F#|-7---7-7-7---7-10---7-7---5/7-7-7-7-7-7/8-7-7-7-7-|
C#|---------------------------------------------------|
x x x x x x x x x

C#|---------------------------------------------|
G#|---------------------------------------------|
E |---------------7---------------6-----------9-|
B |-7---7-7-7-----7---7-7-----------------------|
F#|-5---5-5-5---5-----5-5-----------------------|
C#|------------------------/5-----5----/8-----8-|
x x

Last chorus
C#|---------------------------------------------|
G#|---------------------------------------------|
E |-------------------7-----7----------------7-|
B |-2-----2-----2---x-7-----7----2-----2---x-7-|
F#|-2-----2-----2---x-5-----5----2-----2---x-5-|
C#|-0-----0-----0---x-------------0-----0---x---|

+ + + +
C#|-------------------------------------------5-5-5-|
G#|-----------------------------------------5-------|
E |-7----------------7-----7----------------------|
B |-7----2-----2---x-7-----7----2-----2-----------|
F#|-5----2-----2---x-5-----5----2-----2-----------|
C#|-------0-----0---x-------------0-----0-----------|

C#|---------------------------------------------|
G#|---------------------------------------------|
E |-------------------7-----7----------------7-|
B |-2-----2-----2---x-7-----7----2-----2---x-7-|
F#|-2-----2-----2---x-5-----5----2-----2---x-5-|
C#|-0-----0-----0---x-------------0-----0---x---|

C#|-------------------------------------------------|
G#|-------------------------------------------------|
E |-7----------------7-----7----------------------|
B |-7----2-----2---x-7-----7----2-----2---9-9-9-9-|
F#|-5----2-----2---x-5-----5----2-----2---7-7-7-7-|
C#|-------0-----0---x-------------0-----0-----------|
x x x x

C#|---------------------------------------------|
G#|---------------------------------------------|
E |---------------------------------------------|
B |-7-----7-----7-----7-----10----10----10----5-|
F#|-7-----7-----7-----7-----10----10----10----5-|
C#|-5-----5-----5-----5-----8-----8-----8-----3-|

C#|---------------------------------------------|
G#|---------------------------------------------|
E |-------------------7-----7------------9-----|
B |-2-----2-----2---x-7-----7----2-------------|
F#|-2-----2-----2---x-5-----5----2-------7-----|
C#|-0-----0-----0---x-------------0-----0-----0-|
x x

C#|---------------------------------------------------|
G#|---------------------------------------------------|
E |---------------------------------------------------|
B |-7-----7-----7-----7-----10----10----10----5-----2-|
F#|-7-----7-----7-----7-----10----10----10----5-----2-|
C#|-5-----5-----5-----5-----8-----8-----8-----3-----0-|

| / slide up
| slide down
| h hammer-on
| p pull-off
| ~ vibrato
| + harmonic
| x Mute note
==================================================

Log In to leave a comment

After registration we will return you to the same place
Comments
face-with-monocle
If you wait a bit, some comments may appear here...

Shhh...

Most Popular
You Might Like